Oops, an error
Loading. Please wait.

Forget You Tab

version 2
version 2

Whole song

Interactive

by Mest
2,722 views 3 this week
no commentswrite comment
1 2 3 4 5
please rate
add to favorites
launch autoscroll
font size
0
reset
how to read this tab
guitar tuner
Autoscroll
slow
fast
+/-
esc
set tempo
stop
Help us to improve Ultimate-Guitar.com Take our survey!
×
Difficulty
intermediate
song:forget you
band:mest
album:wasting time

well this is an easy great song to play so i hope you don't have any problem to play it. enjoy

intro
e ------------------------------------------------------------------------|
b ------------------------------------------------------------------------|
g -----4444444-8------4444444-8------4444444-8------4444444-111111111111--|
d -9/--4444444-8-6666-4444444-8-6666-4444444-8-6666-4444444--x-x-x-x-x-x--|
a -9/--2222222-6-6666-2222222-6-6666-2222222-6-6666-2222222--9-9-9-9-9-9--|
e -7/------------4444-----------4444-----------4444-----------------------|

verse x2
e -------------------------------------|
b -------------------------------------|
g -------------------------------------|
d -666666666666-22222222h4p2h4p2h4p2h4-|
a -666666666666-2222222222222222222222-|
e -444444444444------------------------|

e ------------------------------------|
b ------------------------------------|
g ------------------------------------|
d -666666666666-2222222222-4444444444-|
a -666666666666-2222222222-4444444444-|
e -444444444444------------2222222222-|

chorus x2
e ----------------------------------------------------------|
b ----------------------------------------------------------|
g -4444444444-8888888888---------------/13-11-9-9h11p9h11-9-|
d -4444444444-8888888888-6666666666-------------------------|
a -2222222222-6666666666-6666666666-------------------------|
e -----------------------4444444444-------------------------|

intro
e -------------------------------|
b -------------------------------|
g -4444444-8------4444444-8------|
d -4444444-8-6666-4444444-8-6666-|
a -2222222-6-6666-2222222-6-6666-|
e -----------4444-----------4444-|
pm ....... . .... .......

verse
e -----------------------------------------------------------|
b -----------------------------------------------------------|
g -----------------------------------------------------------|
d -666666666666-22222222h4p2h4p2h4p2h4--6/-2222222-444444444-|
a -666666666666-2222222222222222222222--6/-2222222-444444444-|
e -444444444444-------------------------4/---------222222222-|

e ------------------------------------------------------------------|
b ------------------------------------------------------------------|
g ------------------------------------------------------------------|
d -666666666666-22222222h4p2h4p2h4p2h4-66x6x66xx6x6-2222222-4444444-|
a -666666666666-2222222222222222222222-66x6x66xx6x6-2222222-4444444-|
e -444444444444------------------------44x4x44xx4x4---------2222222-|
pm ............

chorus x2
e -------------------------------------------------------|
b -------------------------------------------------------|
g -4444444444-8888888888------------/13-11-9-9h11p9h11-9-|
d -4444444444-8888888888-6666666666----------------------|
a -2222222222-6666666666-6666666666----------------------|
e -----------------------4444444444----------------------|

bridge (gtr.1)
e -----------------------------------------------|
b -----------------------------------------------|
g -----------------------------------------------|
d ----1-----1------------------------------------|
a -22---222---2----11-22-1----33-44-3----------2-|
e --------------22---------44---------00-22-44---|
pm .. . ... . . .. .. .. . .. .. .. . .. .. .. .

bridge (gtr.2)
e -----------------------------------------------|
b -----------------------------------------------|
g -44/-------------------------------------------|
d -44/-------------------------------------------|
a -22/-------------------------------------------|
e -----------------------------------------------|

bridge (gtr.1)
e -----------------------------------------------|
b -----------------------------------------------|
g -----------------------------------------------|
d ----1-----1------------------------------------|
a -22---222---2----11-22-1----33-44-3----------2-|
e --------------22---------44---------00-22-44---|
pm .. . ... . . .. .. .. . .. .. .. . .. .. .. .

bridge (gtr.2)
e ------------------------------------------------|
b ------------------------------------------------|
g -4----------------------------------------------|
d -4------------44----------6----------22/x-------|
a -2------------44----------6----------22/x-------|
e --------------22----------4---------------------|

bridge (gtr.1)
e -----------------------------------------------|
b -----------------------------------------------|
g -----------------------------------------------|
d ----1-----1------------------------------------|
a -22---222---2----11-22-1----33-44-3----------2-|
e --------------22---------44---------00-22-44---|
pm .. . ... . . .. .. .. . .. .. .. . .. .. .. .

bridge (gtr.2)
e -----------------------------|
b -----------------------------|
g -444x4x---------------777x7x-|
d -444x4x-444x4x-666x6x-777x7x-|
a -222x2x-444x4x-666x6x-999x9x-|
e --------222x2x-444x4x--------|

bridge (gtr.1)
e -----------------------------------------------|
b -----------------------------------------------|
g -----------------------------------------------|
d ----1-----1------------------------------------|
a -22---222---2----11-22-1----33-44-3----------2-|
e --------------22---------44---------00-22-44---|
pm .. . ... . . .. .. .. . .. .. .. . .. .. .. .

bridge (gtr.2)
e -----------------------------|
b -----------------------------|
g -444x4x---------------777x7x-|
d -444x4x-444x4x-666x6x-777x7x-|
a -222x2x-444x4x-666x6x-999x9x-|
e --------222x2x-444x4x--------|

two more times this last one without PM.

chorus x3
e -------------------------------------------------------|
b -------------------------------------------------------|
g -4444444444-8888888888------------/13-11-9-9h11p9h11-9-|
d -4444444444-8888888888-6666666666----------------------|
a -2222222222-6666666666-6666666666----------------------|
e -----------------------4444444444----------------------|

outro (gtr.1)
e -------------------------------|
b -------------------------------|
g -1313xx13x131313xx13x1313xx13/-
d -1313xx13x131313xx13x1313xx13/-
a -1111xx11x111111xx11x1111xx11/-
e -------------------------------

outro (gtr.1)
e ------------------------------------|
b ------------------------------------|
g -1313xx13x131313xx1313/99x9x1111x11-
d -1313xx13x131313xx1313/99x9x1111x11-
a -1111xx11x111111xx1111/77x7x-9-9x-9-|
e ------------------------------------|

outro (gtr.2)
e ------------------------------|
b ------------------------------|
g -1313xx13x131313xx13x1313xx13-
d -1313xx13x131313xx13x1313xx13-
a -1111xx11x111111xx11x1111xx11-
e ------------------------------

outro (gtr.1)
e ------------------------------------|
b ------------------------------------|
g -1313xx13x131313xx1313/99x9x1111x11-
d -1313xx13x131313xx1313/99x9x1111x11-
a -1111xx11x111111xx1111/77x7x-9-9x-9-|
e ------------------------------------|

outro (gtr.2)
e ---------------------------------------|
b ---------------------------------------|
g -1313xx13x131313xx1313/1616x16x1818x18-
d -1313xx13x131313xx1313/1616x16x1818x18-
a -1111xx11x111111xx1111/1414x14x1616x18-
e ---------------------------------------

outro (both gtrs.)
e ---------------------------------------------------|
b -99xx9x999xx99-55x5x77x77-99xx9x999xx99------------|
g -88xx8x888xx88-44x4x66x66-88xx8x888xx88------------|
d -66xx6x666xx66-22x2x44x44-66xx6x666xx66-22x2x44x44-|
a -66xx6x666xx66-22x2x44x44-66xx6x666xx66-22x2x44x44-|
e ---------------------------------------------22x22-|

e ---------------------|
b ---------------------|
g ---------------------|
d -66xx66xx-22xxx44xxx-|
a -66xx66xx-22xxx44xxx-|
e -44xx44xx------22xxx-|

end on
e -----
b -----
g -----
d -66/-
a -66/-
e -44/-
Suggest correction
Give kudos to tab author, rate the tab!
1 2 3 4 5
comments
print report bad tab
guest
You may want to rate the tab now too:
select rating
Wanna post a correction for this tab? Suggest correction