Oops, an error
Loading. Please wait.

Fuct Up Kid Tab

version 1
version 1

Whole song

Interactive

by Mest
1,758 views 1 this week
no commentswrite comment
1 2 3 4 5
accurate
x 4
add to favorites
launch autoscroll
font size
0
reset
how to read this tab
guitar tuner
Tab Pro tools
  • play this tab
  • loop segment
  • change instrument
  • show fretboard
  • metronome
×
Best way to learn
"Fuct Up Kid"
Autoscroll
slow
fast
+/-
esc
set tempo
stop
FUCT UP KID - Mest

Email: goldfingertf@hotmail.com

INTRO (Guitar 1)(At the last note slide down the neck) 
------------------------------------------------------------------------------
------------------------------------------------------------------------------
------------------------------------------------------------------------------
-13-11-9-8-9-9---13-11-9-11-11-11---13-11-9-8-9-9---13-11-11-9-9-9-9-9/-------
------------------------------------------------------------------------------
------------------------------------------------------------------------------
                                                                              
INTRO (Guitar 2)
------------------------------------------------------------------------------
------------------------------------------------------------------------------
--------9-------------11-------------9----------11-11-------------------------
-9------9-8x---9------11-8x---9------9-8x---9---11-11---9-9-9-9-9-9-----------
-9-8x---7------9-8x----9------9-8x---7------9----9--9---9-9-9-9-9-9-----------
-7-------------7--------------7-------------7-----------7-7-7-7-7-7-----------
                                                                              
VERSE 1 
-------------------|-----------------------------------------------------------
-------------------|-----------------------------------------------------------
--4------------9-9-|--4-4------------9-9---------------------------------------
--4--6-6--4-4--9-9-|--4-4--6-6--4-4--9-9-------x4x-----------------------------
--2--6-6--4-4--7-7-|--2-2--6-6--4-4--7-7-------x4x-16x-------------------------
-----4-4--2-2------|-------4-4--2-2------------x2x-----------------------------
                                                                              
CHORUS 
------------------------------------------------|------------------------------
------------------------------------------------|------------------------------
------------9-9--9-9--------------11-11--11-11--|--------11-11-----------------
-9-9--9-9---9-9--9-9---9-9--9-9---11-11--11-11--|---9-9--11-11---9-9-9-9-9-9---
-9-9--9-9---7-7--7-7---9-9--9-9----9--9---9--9--|---9-9---9--9---9-9-9-9-9-9---
-7-7--7-7--------------7-7--7-7-----------------|---7-7----------7-7-7-7-7-7---
                                                                              
VERSE 2 
--------|----------------------------------------------------------------------
--------|----------------------------------------------------------------------
--------|---------------x9x---------------x11x---------------x9x---------------
-4------|------x9x------x9x-8x---x9x------x11x-8x---x9x------x9x-8x------------
-4--16x-|------x9x-8x---x7x------x9x-8x---x-9x------x9x-8x---x7x---------------
-2------|------x7x---------------x7x----------------x7x------------------------
                                                                              
And after the MUTED PART play this crapp again
------------------------------------------------------------------------------
------------------------------------------------------------------------------
------11-11-------------------------------------------------------------------
-9-9--11-11--9-9-9-9-9-9------------------------------------------------------
-9-9--9---9--7-7-7-7-7-7------------------------------------------------------
-7-7---------7-7-7-7-7-7------------------------------------------------------

Ok then the CHORUS PART again and in the end this stuff down here (This are
actually the variations of the 2nd CHORUS PART after the 2nd VERSE, just 4 fun ;-)
------------------------------------------------------------------------------
------------------------------------------------------------------------------
------11-11------------------------------------11-----------------------------
-9-9--11-11--9-9-9-9-9-9-----------------------11-----------------------9-----
-9-9-- 9--9--7-7-7-7-7-7--x3---3rd time play----9---longer and end on---9----- 
-7-7---------7-7-7-7-7-7------------------------------------------------7-----


===========

FUCKED UP KID - Mest

By: Sean Tapping (seanybaby@hotmail.com)
Tuning: Standard

INTRO
e|---------------------------------------------------------------------------|
B|---------------------------------------------------------------------------|
G|---------------------------------------------------------------------------|
D|--13--11--9---8h9-9-9----13--11-9-11-11h13---11--13--11--9---8h9-9-9-------|
A|---------------------------------------------------------------------------|
E|---------------------------------------------------------------------------|

INTRO (last lil bit)
e|----------------|
B|----------------|
G|----------------|
D|--13--11-11-9-9-|
A|----------------|
E|----------------|

This is the intro for the song .. it is also played in the middle aswell
if anyone knows the rest of the chords please email me "seanybaby@hotmail.com"
thanks
comments
print report bad tab
I want to post or [tab]
guest
You may want to rate the tab now too:
select rating
Please do not post tabs as comments. Select "correction" instead!