Oops, an error
Loading. Please wait.

Fuct Up Kid Tab

version 2
version 2

Whole song

Interactive

by Mest
150 views 3 this week
no commentswrite comment
1 2 3 4 5
please rate
add to favorites
launch autoscroll
font size
0
reset
how to read this tab
guitar tuner
Autoscroll
slow
fast
+/-
esc
set tempo
stop
Help us to improve Ultimate-Guitar.com Take our survey!
×
Author
Difficulty
ElJakeO 104
novice
e|-----------------------------------------------------------------|
B|-----------------------------------------------------------------|
G|-----------------------------------------------------------------|
D|--13-13-11-11-9-9-9-9-8---9-9---13-13-11-11-9-9-9-9-11---11-11---|
A|-----------------------------------------------------------------|
E|-----------------------------------------------------------------|

e|---------------------------------------------------------|
B|---------------------------------------------------------|
G|---------------------------------------------------------|
D|--13-13-11-11-9-9-9-9-8---9-9---13---11-11---9-9-9-9-9---|
A|---------------------------------------------------------|
E|---------------------------------------------------------|


e|------------------|
B|------------------|
G|-------------99---|
D|--9--66--44--99---|
A|--9--66--44--77---|
E|--7--44--22-------|


e|---------------------|
B|---------------------|
G|---------------------|
D|--9999999999999999---|
A|--9999999999999999---|
E|--7777777777777777---|
  pm................

e|----------------------------------|
B|----------------------------------|
G|--------99-99---------------------|
D|--9-99--99-99--99-99--1111-1111---|
A|--9-99--77-77--99-99--9-9--9-9----|
E|--7-77---------77-77--------------|

e|--------------------------------|
B|--------------------------------|
G|--------9-99--------------------|
D|--9-99--9-99--99--1111--99999---|
A|--9-99--7-77--99--1111--99999---|
E|--7-77--------77--9-9---77777---|

[bass]

e|---------------------|
B|---------------------|
G|--6666666666666666---|
D|--6666666666666666---|
A|--4444444444444444---|
E|---------------------|


e|-----------------------------------|
B|-----------------------------------|
G|--------99-99---------1111-1111----|
D|--9-99--99-99--99-99--1111-1111----|
A|--9-99--77-77--99-99--9-9--9-9-----|
E|--7-77---------77-77---------------|

e|-------------------------------------|
B|-------------------------------------|
G|---------99-99-----------------------|
D|--99-99--99-99--99--1111--99999999---|
A|--99-99--77-77--99--1111--99999999---|
E|--77-77---------77--9-9---77777777---|


e|-----------------------------------------------------------------|
B|-----------------------------------------------------------------|
G|-----------------------------------------------------------------|
D|--13-13-11-11-9-9-9-9-8---9-9---13-13-11-11-9-9-9-9-11---11-11---|
A|-----------------------------------------------------------------|
E|-----------------------------------------------------------------|

e|-------------------------------------------------------|
B|-------------------------------------------------------|
G|-------------------------------------------------------|
D|--13-13-11-11-9-9-9-9-8---9-9---13---11-11---9-9-9-9---|
A|-------------------------------------------------------|
E|-------------------------------------------------------|


e|-------------------------------------------------------|
B|-------------------------------------------------------|
G|--------99-99---------1111-1111---------99-99-----11---|
D|--9-99--99-99--99-99--1111-1111--99-99--99-99--9--11---|
A|--9-99--77-77--99-99--9-9--9-9---99-99--77-77--9--9----|
E|--7-77---------77-77-------------77-77---------7-------|

e|---------------------------------------------------------------|
B|---------------------------------------------------------------|
G|-------------1111------------1111111111111111111111111111111---|
D|--99999999-9-1111-99999999-9-1111111111111111111111111111111---|
A|--99999999-9-9-9--99999999-9-9-9-9-9-9-9-9-9-9-9-9-9-9-9-9-9---|
E|--77777777-7------77777777-7-----------------------------------|

e|------------------------------------------------|
B|------------------------------------------------|
G|-----------99999999----------1111111111111111---|
D|--99999999-99999999-99999999-1111111111111111---|
A|--99999999-77777777-99999999-9-9-9-9-9-9-9-9----|
E|--77777777----------77777777--------------------|
  pm........ ........ ........ ...............

e|---------------------------------------|
B|---------------------------------------|
G|-----------99999999----1111------------|
D|--99999999-99999999-9--1111-99999999---|
A|--99999999-77777777-9--9-9--99999999---|
E|--77777777----------7-------77777777---|
  pm........ ........

e|-------------------------------------------------------|
B|-------------------------------------------------------|
G|--------99-99---------1111-1111---------99-99-----11---|
D|--9-99--99-99--99-99--1111-1111--99-99--99-99--9--11---|
A|--9-99--77-77--99-99--9-9--9-9---99-99--77-77--9--9----|
E|--7-77---------77-77-------------77-77---------7-------|

e|-----------------------------|
B|-----------------------------|
G|-------------1111------------|
D|--99999999-9-1111-99999999---|
A|--99999999-9-9-9--99999999---|
E|--77777777-7------77777777---|
Suggest correction
What's this?
You can suggest a correction to this tab. Community and Mods will review your correction and vote to approve or reject it.
comments
We did not receive enough feedback on this tab! Please rate:
print report bad tab
1 2 3 4 5
guest
You may want to rate the tab now too:
select rating
Please do not post tabs as comments. Select "correction" instead!