Oops, an error
Loading. Please wait.

Hotel Room Bass Tab

version 1
version 1

Whole song

Interactive

by Mest
807 views 6 this week
no commentswrite comment
1 2 3 4 5
worth learning
x 3
add to favorites
launch autoscroll
font size
0
reset
guitar tuner
Tab Pro tools
  • play this tab
  • loop segment
  • change instrument
  • show fretboard
  • metronome
Autoscroll
slow
fast
+/-
esc
set tempo
stop
Contributor
------------------------------------------------------------------------------- 
                           HOTEL ROOM - Mest 
------------------------------------------------------------------------------- 

-Ryan(Antiflag332@aol.com) 

Yo,I don't even like mest I just heard my friends 
band play it and i liked it.damn i hate to say it but 
i like this song!!!But I still tabbed it and plus it 
was easy so umm i kno this 100% right i just kno it 
soo here you go! 

Intro 
G------------------------------------X2 G-----------------------------------
D------------------------------------   D-----------------------------------
A-6-6-6-6----------------------------   A-6-6-6-6---------------------------
E---------4-4-4-4--8-8-8-8--6-6-6-6--   E------------4-4-4-4-----8-6-4------

Verse 
G-------------------------------------l X4 
D-------------------------------------l 
A-6-6---------------------------------l 
E--------4-4-------8-8-------6-6------l 

Pre-Chorus 
G----------------------------------------------------- 
D----------------------------------------------------- 
A----------------------------------------------------- 
E-4-4-4-4-4-4-4-4-4-4-------6-6-6-6-6-6-6-6-6-6-6-6--- 

Chorus 
G---------------------------------------------------------------------------- 
D-------8-------------------------------------------------------------------- 
A-6-6-----6------------8------------------6-------------------8-------------- 
E-------------------6-------6--------4-4-----4-----------6--------6---------- 

G-------------------------------------------
D-------------------------------------------
A-6-6-6-6-----------------------------------
E--------------6-6-6-6--4-4-4-4-----6-6-6-6-

Verse 
G----------------------------------l--------------------------------------- 
D----------------------------------l----------6-6-6-6--10-10-10-10-8-8-8-8- 
A-6-6------------------------------lA-6-6-6-6------------------------------ 
E--------4-4-------8-8-------6-6---lE-------------------------------------- 

Pre-Chorus 
G-----------------------------------------------------
D-----------------------------------------------------
A-----------------------------------------------------
E-4-4-4-4-4-4-4-4-4-4-------6-6-6-6-6-6-6-6-6-6-6-6---

Chorus 
G------------------------------------------------------------------------- 
D-------8----------------------------------------------------------------- 
A-6-6-----6------------8------------------6-------------------8----------- 
E-------------------6-------6--------4-4-----4-----------6--------6------- 

G-------------------------------------------- 
D-------------------------------------------- 
A-6-6-6-6------------------------------------ 
E--------------6-6-6-6--4-4-4-4-----6-6-6-6-- 

Bridge 
G-----------------------------5-----------7-------
D-------6-6--8-8-8-8-6-6-----6--8-8-----8---------
A-6-6---------------------------------------------
E-------------------------------------------------

Break 
G--------------------------------------------------- 
D--------------------------------------------------- 
A---------------6-6---6-6--------------------------- 
E--8-8---8-8---------------4-4--4-4--6-6---6-6------ 

Break Ending 
G------------------------------------------------------------------------------
D------------------------------------------------------------------------------
A----------------------6-6-6-6-6-6-6-6-----------------------------------------
E-10/-8-8-8-8-8-8-8-8------------------4-4-4-4-4-4-4-4-4---6-6-6-6-6-6-6-6-6-6-

-------------------------------------------------------------------------------
comments
We did not receive enough feedback on this tab! Please rate:
print report bad tab
1 2 3 4 5
I want to post or [tab]
guest
You may want to rate the tab now too:
select rating
Please do not post tabs as comments. Select "correction" instead!