Oops, an error
Loading. Please wait.

Jaded These Years Tab

version 1
version 1

Whole song

Interactive

by Mest
8,678 views 6 this week
4 commentsread comments
1 2 3 4 5
accurate
x 8
add to favorites
launch autoscroll
font size
0
reset
how to read this tab
guitar tuner
Autoscroll
slow
fast
+/-
esc
set tempo
stop
Help us to improve Ultimate-Guitar.com Take our survey!
×
Author
-------------------------------------------------------------------------------
                             Jaded (These Years) - Mest
-------------------------------------------------------------------------------

Tabbed by: Jenn aka J-Dogg
Email: Stargirl32904@aol.com

Tuning: Standard Tuning


Intro (Acoustic)
E----------------------------------------------------------------
B----------------------------------------------------------------
G----2-----2-----------------------------------------------------
D--------0-------------------------------------------------------
A--0--------------(2x)-------------------------------------------
E------4-----0---------------------------------------------------

Verse 1 (Acoustic)

E----------------------------------------------------------------
B----------------------------------------------------------------
G----2-----2-----2-----2-----------------------------------------
D--------------0-----0---0---(7x or until chorus)----------------
A--0-----0---0---------------------------------------------------
E------4-----------0---------------------------------------------

2nd Guitar During Verse 1 (Acoustic)

E----------------------------------------------------------------
B----------------------------------------------------------------
G------------7----9----------------------------------------------
D--7----6----7----9----(Play along with above until chorus)------
A--7----6----5----7----------------------------------------------
E--5----4--------------------------------------------------------

Chorus (Palm Muted)

E----------------------------------------------------------------
B----------------------------------------------------------------
G-----------7-----------------4----------------------------------
D--7--------7--(6x)--4--------4--(6x)----------------------------
A--7--(6x)--5--------4--(6x)--2----------------------------------
E--5-----------------2-------------------------------------------

I was sick of all the stupid, wrong tabs, so I tabbed it myself. The 2nd Verse is
the same as the 1st Verse, only it's palm muted. And I'm not sure about the end.
But the chorus stays the same everytime. So, have fun.
Suggest correction
What's this?
You can suggest a correction to this tab. Community and Mods will review your correction and vote to approve or reject it.
comments
print report bad tab
4 comments total. Showing first comments.
+1 reply
go_leafs_go 34 wrote on August 4 2003, 12:00 am

dude, good work on this tab, i dont
think its perfect but pretty damn close, intro is a little sketchy but good job on it

0 reply
rmwalsh 11 wrote on September 2 2003, 12:00 am

The fingering for the notes in the vers is easier like this, and its also correct by changing the D to an E
e--------------------------------------
B--------------------------------------
G--------------------------------------
D------7-------7--------7--------7-----
A------------7---7---5---------7---7---
E---5-----4----------------0-----------

and repeated until the chorus. Speaking of the chorus we shall change that too. How about

(A Maj) (D Maj) (F# Minor) (E Maj)
e-5---------5-------2---------0------]
B-5---------7-------2---------0------]
G-6---------7-------2---------1------]
D-7---------7--(x8)-4---------2------]
A-7----(x8)-5-------4--(x8)---2-(x8)-]
E-5-----------------2---------0------]

Repeat this Twice and Oh yea, Not Palm Muted.
After palying two times through play these two chords when he repeats "never regret these Years"

e--5--------7-------------------------
B--7--------9-------------------------
G--7--------9-------------------------
D--7--(x8)--9----(let ring until verse
A--5--------7-------------------Starts)
E------------------------------------

Ok now here are the chords for the bridge, which somehow magically disappeared.

e--2--------5--------5--------7--------
B--3--------7--------5--------9--------
G--4--------7--------4--------9--------
D--4--(x8)--7--(x8)--7--------9--(x8)--
A--2--------5--------7--(x8)--7--------
E--------------------5-----------------

Repeat twice with some Palm mutting tricks on the last chord (you can hear it in the song)Then on the second time through keep strumming the last chord until the quiet acoustic chorus (when Benji sings)

That should satisfy. No need to do the fills.

0 reply
Blade-guitar 104 wrote on June 1 2006, 11:42 pm

both ways work, good job!

guest
You may want to rate the tab now too:
select rating
Please do not post tabs as comments. Select "correction" instead!