Oops, an error
Loading. Please wait.

Jaded These Years Tab

version 3
version 3

Whole song

Interactive

by Mest
1,164 views 1 this week
1 commentread comment
1 2 3 4 5
please rate
add to favorites
launch autoscroll
font size
0
reset
how to read this tab
guitar tuner
Tab Pro tools
  • play this tab
  • loop segment
  • change instrument
  • show fretboard
  • metronome
×
Best way to learn
"Jaded These Years"
Autoscroll
slow
fast
+/-
esc
set tempo
stop
Contributor
This is my first tab, I'm sick of everyones unfinised tabs 
so I created one that was finished im not sure if the 2nd verus is right
if anyone has a problem email me and I will fix it 

Tabbed by Another Lost Cause

Standard tuning

Mest Feat Benji - Jaded (These Years)

^ - Upstroke 
... - Palm mute
~ - Let it ring

Intro
Guitar 1 (acoustic)
E---------------------------|----------------------
B---------------------------|----------------------
G---------------------------|----------------------
D----------7----------------|------------7---------
A------0--------------------|-------5--------------    (X2)
E--------------4------------|-----------------0----

1st verse:
Guitar 1 (acoustic) Repeat until chorus
E-------------------------------------------------------
B-------------------------------------------------------
G-------------------------------------------------------
D----------7----------7----------- 7------------7-------
A------0----------0-----0-----5------------5------5-----    (X7)
E--------------4------------------------0---------------

Guitar 2 (acoustic )Repeat until chorus
E---------------------------------------------------
B---------------------------------------------------
G-------------------------7-7--9--------------------
D---------- 7-7--6-------7-7--9---------------------
A-----------7-7--6-------5-5--7---------------------    (X7)
E-----------5-5--4---------^------------------------
	      ^	

Chorus:
Both Guitars:
E-----------------------------------------------------------------
B-----------------------------------------------------------------
G------------------------777777-------------------------222222----
D----------777777--------777777-----444444----------222222--------
A----------777777--------555555-----444444----------000000--------  (X2)
E----------555555-----------------------222222--------------------
     
E----------------------------------------
B----------------------------------------
G-----------------------------9----------
D----------777777-------------9----------
A---------- 777777------------7----------
E-----------555555-----------------------

Verse 2:
Guitar 1(acoustic)
E---------------------------|----------------------
B---------------------------|----------------------
G---------------------------|----------------------
D----------7----------------|------------7---------
A------0--------------------|-------5--------------    (X2)
E--------------4------------|-----------------0----

Guitar 2(acoustic)
E---------------------------------------------------
B---------------------------------------------------
G-----------------------7-7--9----------------------
D----------7-7--6-------7-7--9----------------------
A----------7-7--6-------5-5--7----------------------    (X7)
E----------5-5--4---------^-------------------------
	     ^

Guitar 1
E---------------------------------------------------
B---------------------------------------------------
G----------------------------------7-7-7-2----------
D------------------7-7-7-6---------7-7-7-2---------- (X2)
A------------------7-7-7-6---------5-5-5-0----------    
E------------------5-5-7-4--------------------------
                   .......         ........
E----------------------------------------------------
B----------------------------------------------------
G--------------------------------7-77-22-------------
D------------------7-77-66-------7-77-22------------- play until chorus
A------------------7-77-66-------5-55-00-------------    
E------------------5-55-44---------------------------
                   .......       ........

Guitar 2 

E------------------------------------------------------
B------------------------------------------------------
G-------------------------------------9~---999---------
D-----------------------6--66--66-----9~---999----6--6-
A----4-4---7-7----------6--66--66-----7~---777----6--6-    
E-----------------------4--44--44-----------------4--4-
	  
Pick Scrape both guitars

Chorus:
Both Guitars:
E----------------------------------------------------------------------
B----------------------------------------------------------------------
G-------------------------777777-------------------------222222--------
D-----------777777--------777777---------444444----------222222--------
A-----------777777--------555555---------444444----------000000--------  (X2)
E-----------555555-----------------------222222------------------------

I think this is the bridge Strumming pattern is up and down different to the the chorus
Both Guitars:
E----------------------------------------------------------------------
B----------------------------------------------------------------------
G-------------------------777777-------------------------22-22-22------
D-----------777777--------777777---------444444----------22-22-22------
A-----------777777--------555555---------444444----------00-00-00------  
E-----------555555-----------------------222222------------------------


E----------------------------------------------------------------------
B----------------------------------------------------------------------
G------------------------777777----------------------22-22-22-22222222-
D----------777777--------777777---------444444-------22-22-22-22222222-
A----------777777--------555555---------444444-------00-00-00-00000000-   
E----------555555-----------------------222222-------------------------

Benji's Solo:
Guitar 1: (acoustic)
E-----------------------------------------------------------------
B-----------------------------------------------------------------
G-------------------------777777-------------------------2--------
D-----------777777--------777777---------444444----------2--------
A-----------777777--------555555---------444444----------0--------    
E-----------555555-----------------------222222-------------------

Both Guitars: this chorus has a strumming pattern of up and down like the bridge
E-----------------------------------------------------------------
B-----------------------------------------------------------------
G-------------------------777777-------------------------222222---
D----------777777---------777777---------444444----------222222---
A---------- 777777--------555555---------444444----------000000---    
E-----------555555-----------------------222222-------------------

Then normal chorus strumming pattern
Outro
E------------------------------------------------------------------------
B------------------------------------------------------------------------
G-------------------------777777-------------------2222222222222---------
D-----------777777--------777777---------444444----2222222222222-------7-
A-----------777777--------555555---------444444----0000000000000-------7-    
E-----------555555-----------------------222222------------------------5-

There's a time and place, for everything.
There's a reason why, certain people meet.
There's a destination, for everyone.
What's the explination, when we're done?

All the summer nights spent wondering;
So many questions asked, but no one's answering.
Would it be okay if I left today?
Took my chances on what you said was wrong?

I'm jaded, stupid, and wreckless.
Not sorry, and I'll never regret.
These years spent, so faded and wreckless.
Not sorry, and I'll never regret these years.
I'll never regret these years.

Now here i sit, so far away.
Remembering all our memories.
Its times like these that I miss you most,
Remembering when we were so close.

I'm jaded, stupid, and wreckless.
Not sorry, we'll never regret.
These years spent, so faded and wreckless.
Not sorry, and I'll never regret these years.

We'll never forget the places we've been, you and i.
Our lives are slipping away.
Don't want to let time pass us by, byyyyyyy...

I'm jaded, stupid, and wreckless.
Not sorry, and I'll never regret. 
These years....
...spent, so faded and wreckless, 
Not sorry, and I'll never regret...
I'm jaded, stupid, and wreckless.
Not sorry, and I'll never regret these years.
comments
We did not receive enough feedback on this tab! Please rate:
print report bad tab
1 2 3 4 5
1 comment total.
0 reply
Punken monkey wrote on January 22 2004, 12:00 am

not bad, seems ok spose

I want to post or [tab]
guest
You may want to rate the tab now too:
select rating
Please do not post tabs as comments. Select "correction" instead!