Oops, an error
Loading. Please wait.

Kiss Me Kill Me Tab

version 1
version 1

Whole song

Interactive

by Mest
10,675 views 6 this week
1 commentread comment
1 2 3 4 5
excellent!
x 4
add to favorites
launch autoscroll
font size
0
reset
how to read this tab
guitar tuner
Tab Pro tools
  • play this tab
  • loop segment
  • change instrument
  • show fretboard
  • metronome
Autoscroll
slow
fast
+/-
esc
set tempo
stop
Contributor
Intro

e------------------------------------|
B------------------------------------|
G------------------------------------|
D-----5~3~2~-----5~3~2~-----0-2-2-0~-|
A-3-3--------3-3--------3-3----------|
E------------------------------------|

e-------------------------------|
B-------------------------------|
G-------------------------------|
D-5~3~2~-5~3~2~-5~3~2~-0~2~2~0~-|
A-------------------------------|
E-------------------------------|

Verse
 (One, two, three,...)
e----
B----
G-2~-
D-2~-
A-0~-
E----
 (A tragedy that's built on destiny...)
e----------------------|
B----------------------|
G--------555555--------|
D-333333-555555-555555-|
A-333333-333333-555555-|
E-111111--------333333-|
  ...... ...... ......

e-----------------------------|
B-----------------------------|
G-222222--------555555--------|
D-222222-333333-555555-555555-| (x3)
A-000000-333333-333333-555555-|
E--------111111--------333333-|
  ...... ...... ...... ......

Played over top of the verse
 (Blood from the knife...)
e-----------------------|
B-----------------------|
G-----------------------|
D-----3-0-2-3-0-5-3-2-0-| (x2)
A-0-0-------------------|
E-----------------------|

 (This valentine is doomed...)
e--------------      ----|
B--------------      ----|
G-------2~5~4~-      ----|
D-3~-5~-2~5~4~- (x2) -3~-|
A-3~-5~-0~3~2~-      -3~-|
E-1~-3~--------      -1~-|

Bridge
 (I would let you...)
e-------------|
B-------------|
G-22-77-55-44-|
D-22-77-55-44-|
A-00-55-33-22-|
E-------------|

Chorus
 (Kiss me, kill me...)
e----------------------------------------------------------------------|
B----------------------------------------------------------------------|
G-2222222222222222------------------45554555455545754------------------|
D-2222222222222222-3333333333333333-45554555455545754-5555555555555555-|
A-0000000000000000-3333333333333333-23332333233323532-5555555555555555-|
E------------------1111111111111111-------------------3333333333333333-|

e----
B----
G-2~-
D-2~-
A-0~-
E----

Verse
 (Our tragedy, seems to be killing...)
e-----------------------------|
B-----------------------------|
G-222222--------555555--------|
D-222222-333333-555555-555555-| (x2)
A-000000-333333-333333-555555-|
E--------111111--------333333-|
  ...... ...... ...... ......

Played over top of verse
 (Our tragedy seems to be killing)
e-----------------------------------------------|
B-----------------------------------------------|
G-----------------------------------------------|
D-5-5-5-3-2~-5-5-5-3-2-0~-5-5-5-3-2~-5-5-5-3-0~-|
A-----------------------------------------------|
E-----------------------------------------------|

 (This valentine still looms...)
e--------------------------------------------------------    ---------|
B--------------------------------------------------------    ---------|
G-------------------22222222-55554444--------------------    -222-222-|
D-33333333-55555555-22222222-55554444--33333333-55555555-    -222-222-|
A-33333333-55555555-00000000-33332222--33333333-55555555-    -000-000-|
E-11111111-33333333--------------------11111111-33333333-    ---------|
                                                              ... ...

Bridge
 (I would let you...)
e-------------|
B-------------|
G-22-77-55-44-|
D-22-77-55-44-|
A-00-55-33-22-|
E-------------|

Chorus
 (Kiss me, kill me...)
e----------------------------------------------------------------------|
B----------------------------------------------------------------------|
G-2222222222222222------------------45554555455545754------------------|
D-2222222222222222-3333333333333333-45554555455545754-5555555555555555-|
A-0000000000000000-3333333333333333-23332333233323532-5555555555555555-|
E------------------1111111111111111-------------------3333333333333333-|

e----------------------------------------------------------------------|
B----------------------------------------------------------------------|
G-2222222222222222------------------45554555455545754------------------|
D-2222222222222222-3333333333333333-45554555455545754-5555555555555555-|
A-0000000000000000-3333333333333333-23332333233323532-5555555555555555-|
E------------------1111111111111111-------------------3333333333333333-|

e----------|
B----------|
G----------|
D-33333333-
A-33333333-
E-11111111-

Interlude
 (Your eyes unwind...)
e-----------------------------------------------------------------------|
B-----------------------------------------------------------------------|
G-------------------2-2-2-22-5-5-5/6/5/4-------------------222222222222-|
D-3-3-3-33-5-5-5-55-2-2-2-22-5-5-5/6/5/4-3-3-3-33-5-5-5-55-222222222222-|
A-3-3-3-33-5-5-5-55-0-0-0-00-3-3-3/4/3/2-3-3-3-33-5-5-5-55-000000000000-|
E-1-1-1-11-3-3-3-33----------------------1-1-1-11-3-3-3-33--------------|
                                                           ......
 (Hell burns bright...)
e------------------------------------------------------------------------|
B------------------------------------------------------------------------|
G-------------------22222222-55554444-------------------2222222222222222-|
D-33333333-55555555-22222222-55554444--33333333-5555555-2222222222222222-|
A-33333333-55555555-00000000-33332222--33333333-5555555-0000000000000000-|
E-11111111-33333333--------------------11111111-3333333------------------|

(Kiss me, kill me...)
e-------------------------------------------------------------|
B-------------------------------------------------------------|
G-2222222222222222------------------5555555555555555----------|
D-2222222222222222-3333333333333333-5555555555555555-55555555-|
A-0000000000000000-3333333333333333-3333333333333333-55555555-|
E------------------1111111111111111------------------33333333-|
 ................. ................ ................ ........

e----------|
B----------|
G-77-55-44-|
D-77-55-44-|
A-55-33-22-|
E----------|

Chorus
(Kiss me, you're all im wanting, kill me, this feeling's haunting...)
e----------------------------------------------------------------------|
B----------------------------------------------------------------------|
G-2222222222222222------------------45554555455545754------------------|
D-2222222222222222-3333333333333333-45554555455545754-5555555555555555-|
A-0000000000000000-3333333333333333-23332333233323532-5555555555555555-|
E------------------1111111111111111-------------------3333333333333333-|

e----------------------------------------------------------------------|
B----------------------------------------------------------------------|
G-2222222222222222------------------45554555455545754------------------|
D-2222222222222222-3333333333333333-45554555455545754-5555555555555555-|
A-0000000000000000-3333333333333333-23332333233323532-5555555555555555-|
E------------------1111111111111111-------------------3333333333333333-|


e------------------|
B------------------|
G-3333333333333333-
D-3333333333333333-
A-1111111111111111-
E------------------

Outro
e-------------------------------|
B-------------------------------|
G-------------------------------|
D-5~3~2~-5~3~2~-5~3~2~-0~2~2~0~-|
A-------------------------------|
E-------------------------------|

e----
B----
G-2~-
D-2~-
A-0~-
E----


Key
. =Mute
/ =Slide
~ =Ring out
p =Pull off
h =Hammer on
comments
print report bad tab
1 comment total.
0 reply
Nyengster wrote on October 9 2007, 04:59 pm

nice tab...

I want to post or [tab]
guest
You may want to rate the tab now too:
select rating
Please do not post tabs as comments. Select "correction" instead!