Oops, an error
Loading. Please wait.

Kiss Me Kill Me Tab

version 2
version 2

Whole song

Interactive

by Mest
855 views 1 this week
no commentswrite comment
1 2 3 4 5
3 more votes to show rating
add to favorites
launch autoscroll
font size
0
reset
how to read this tab
guitar tuner
Autoscroll
slow
fast
+/-
esc
set tempo
stop
Help us to improve Ultimate-Guitar.com Take our survey!
×
Intro: 
  
 
e|-------------------------------------------------------------------------|
B|-------------------------------------------------------------------------|
G|12-10-9~-12-10-9~--77--9-9-7\--12-10-9~-12-10-9~-12-10-9~--77-9-9-7\-----|
D|----------------------------------------------------------------------7~-|
A|10--8-7~-10--8-7~--55--7-7-5\--10--8-7~-10--8-7~-10--8-7~--55-7-7-5\-----|
E|----------------------------------------------------------------------5~-|

 

e|---------------------------------------------------------------------|
B|---------------------------------------------------------------------|
G|-----------------555555--------------------------555555--------------|
D|-777777--333333--555555--555555--777777--333333--555555--555555--7~--|
A|-777777--333333--333333--555555--777777--333333--333333--555555--7~--|
E|-555555--111111----------333333--555555--111111----------333333--5~--|


Verse 1:

e|---------------------------------------------------------------------|
B|---------------------------------------------------------------------|
G|---------555555--------------------------555555----------------------|X2
D|-333333--555555--555555--777777--333333--555555--555555--777777------|
A|-333333--333333--555555--777777--333333--333333--555555--777777------|
E|-111111----------333333--555555--111111----------333333--555555------|
   ......  ......  ......  ......  ......  ......  ......  ......


Prechorus:

e|--------------------------------|-------------------------------------|
B|--------------------------------|-------------------------------------|
G|-------------------------555555-|X2-----------------------------------|
D|-333333--555555--777777--555555-|---333333--5\------------------------|
A|-333333--555555--777777--333333-|---333333--5\------------------------|
E|-111111--333333--555555---------|---111111--3\------------------------|



Chorus:

e|---------------------------------------------------------|
B|---------------------------------------------------------|
G|-555555555555--------------5555555555--------------------|
D|-555555555555--3333333333--5555555555--5555555555--7~----|
A|-333333333333--3333333333--3333333333--5555555555--7~----|
E|---------------1111111111--------------3333333333--5~----|


Verse 2:

e|---------------------------------|
B|---------------------------------|
G|-----------------555555----------|X2
D|-777777--333333--555555--555555--|
A|-777777--333333--333333--555555--|
E|-555555--111111----------333333--|
   ..............................


Prechorus:

e|----------------------------------------------------------------|
B|----------------------------------------------------------------|
G|-------------------------555555---------------------------------|
D|-333333--555555--777777--555555--333333--555555--7777777777\----|
A|-333333--555555--777777--333333--333333--555555--7777777777\----|
E|-111111--333333--555555----------111111--333333--5555555555\----|


Chorus:

e|---------------------------------------------------|
B|---------------------------------------------------|
G|-555555555555--------------5555555555--------------|X2
D|-555555555555--3333333333--5555555555--5555555555--|
A|-333333333333--3333333333--3333333333--5555555555--|
E|---------------1111111111--------------3333333333--|


Bridge:

e|------------------------------------------------------------------|
B|------------------------------------------------------------------|
G|-------------------------------------------5-5-5555---------------|
D|-2222222222--3-3-3333--5-5-5555--7-7-7777--5-5-5555---------------|
A|-2222222222--3-3-3333--5-5-5555--7-7-7777--3-3-3333---------------|
E|-0000000000--1-1-1111--3-3-3333--5-5-5555-------------------------|


E|------------------------------------------|
B|------------------------------------------|
G|--------------------------------55555555--|
D|--3-3-3333--5-5-5555--77777777--55555555--|
A|--3-3-3333--5-5-5555--77777777--33333333--|
E|--1-1-1111--3-3-3333--55555555------------|



E|---------------------------------------------------------------------|
B|---------------------------------------------------------------------|
G|-----------------------------55555555------------------999999999999--|
D|--3333333--5555555--7777777--55555555--333333--555555--999999999999--|
A|--3333333--5555555--7777777--33333333--333333--555555--777777777777--|
E|--1111111--3333333--5555555------------111111--333333----------------|



e|------------------------------------|
B|------------------------------------|
G|-555555----------555555-------------|
D|-555555--333333--555555--555555-----|
A|-333333--333333--333333--555555-----|
E|---------111111----------333333-----|
   ......  ......  ......  ......


Chorus:

e|---------------------------------|-----------------|
B|---------------------------------|-----------------|
G|-555555----------555555----------|X2---------------|
D|-555555--333333--555555--555555--|---222222222222--|
A|-333333--333333--333333--555555--|---222222222222--|
E|---------111111----------333333--|---000000000000--|


Ending:


e|-----------------------------------------------|
B|-----------------------------------------------|
G|-12-10-9~--12-10-9~--12-10-9~--77-9-9-7\-------|
D|------------------------------------------7~---|
A|-10--8-7~--10--8-7~--10--8-7~--55-7-7-5\-------|
E|------------------------------------------5~---|


e|---------------------------------------------------------------------|
B|---------------------------------------------------------------------|
G|-----------------555555--------------------------555555--------------|
D|-777777--333333--555555--555555--777777--333333--555555--555555--5~--|
A|-777777--333333--333333--555555--777777--333333--333333--555555--7~--|
E|-555555--111111----------333333--555555--111111----------333333--5~--|


Suggest correction
Give kudos to tab author, rate the tab!
1 2 3 4 5
comments
print report bad tab
guest
You may want to rate the tab now too:
select rating
Wanna post a correction for this tab? Suggest correction