Oops, an error
Loading. Please wait.

Miss You Tonight Tab

by Mest
564 views 1 this week
2 commentsread comments
1 2 3 4 5
1 last vote to show rating
add to favorites
launch autoscroll
font size
0
reset
how to read this tab
guitar tuner
Autoscroll
slow
fast
+/-
esc
set tempo
stop
Help us to improve Ultimate-Guitar.com Take our survey!
×
Author
artist:mest
song:miss you tonite
By:psuvin3@aol.com, yea this is my first tab so if i screw up dont go crazy about it
intro
guitar1
e|----------------------------------------------------------
B|----------------------------------------------------------
G|-7--------------------------------------------------------
D|-7----7----5----99-7--------------------------------------
A|-5----7----5----99-7--------------------------------------
E|------5----3----77-5--------------------------------------
guitar2
e|----------------------------------------------------------
B|----------------------------------------------------------
G|----------------------------------------------------------
D|-4-5-7-5-4-2-4--------------------------------------------
A|----------------------------------------------------------
E|----------------------------------------------------------
verse- this is the main riff ,they palm mute it and whatnot 
but it is always the same chords, listen and figure it out

e|---------------------------------------------------------
B|---------------------------------------------------------
G|---7-----------------------------------------------------
D|---7--9--5--7--------------------------------------------
A|---5--9--5--7--------------------------------------------
E|------7--3--5--------------------------------------------
chorus
this is until "i shouldnt of acted that way"
e|----------------------------------------------------------
B|----------------------------------------------------------
G|---7------------------------------------------------------
D|---7--7--5--7---------------------------------------------
A|---5--7--5--7---------------------------------------------
E|------5--3--5---------------------------------------------
"i miss u tonite i made up my mind.....
e|----------------------------------------------------------
B|----------------------------------------------------------
G|--7-------------------------------------------------------
D|--7--7--5-------------------------------------------------
A|--5--7--5-------------------------------------------------
E|-----5--3-------------------------------------------------
....cuzz u were the one....
e|----------------------------------------------------------
B|----------------------------------------------------------
G|-----------------------------------7----------------------
D|---9------7--------xxxx5---xxxx7---7----------------------
A|---9------7--------xxxx5---xxxx7---5----------------------
E|---7------5--------xxxx3---xxxx5--------------------------
Suggest correction
Give kudos to tab author, rate the tab!
1 2 3 4 5
comments
print report bad tab
2 comments total.
0 reply
painiodone 0 Apr 07, 2002 12:00 AM

this tab is perfect-great job man

0 reply
Jd7565 0 Jun 16, 2002 12:00 AM

great tab mest rocks (richard marxism)

guest
You may want to rate the tab now too:
select rating
Wanna post a correction for this tab? Suggest correction