Oops, an error
Loading. Please wait.

Mothers Prayer Tab

version 1
version 1

Whole song

Interactive

by Mest
4,192 views 1 this week
1 commentread comment
1 2 3 4 5
accurate
x 5
add to favorites
launch autoscroll
font size
0
reset
how to read this tab
guitar tuner
Autoscroll
slow
fast
+/-
esc
set tempo
stop
Help us to improve Ultimate-Guitar.com Take our survey!
×
*Intro (clean, play notes near back of strings)
E ----------------------------------------------------------------------
B -------------------2h3p2--------------------5~------------------------
G -------4---------2--------------4--------2---------------4------------
D ----2----2----0--------------2-----2--0---------------2----2-----2--0-
A -0-------------------------0------------------------0---------0-------
E ----------------------------------------------------------------------

E -------------------------------------------------
B -------------5~----------------------------------
G -------2--4--------------------------------------
D ----2--------------------------------------------
A -0-----------------------------------------------
E -------------------------------------------------

*Verse 1 (clean ,listen to song for timing) 
E ---------------
B ---------------
G ----7--4--9----
D -7--7--4--9----
A -7--5--2--7----
E -5-------------

*Chorus 1 (clean pm)
E -----------------------------------------------------
B -----------------------------------------------------
G -------7-----------9---------------------------------
D -7-----7-----7-----9---------7------2-----7----------
A -7-----5(4x)-7-----7(4x)-----7------2-----7----------
E -5(4x)-------5(4x)-----------5(4x)--0(4x)-5(4x)------
    _________3x_________        _______1x________

*Verse 2  (distorted pm)
E -------------------------------------------------------------
B -------------------------------------------------------------
G -------7-----------------------------7------------9----------
D -7-----7------4------2--------7------7------4-----9----------
A -7-----5(8x)--4------2--------7------5(8x)--4-----7(8x)------
E -5(8x)--------2(8x)--0(8x)----5(8x)---------2(8x)------------

*Chorus 2 (2x clean pm, 1x open distortion)
E ----------------------------
B ----------------------------
G --------7-------------9-----
D -7------7------7------9-----
A -7------5(4x)--7------7(4x)-
E -5(4x)---------5(4x)--------

*Chorus end (play 1x)
E -------------------------------------
B -------------------------------------
G ------7-7--------------7-7-----------
D -7-x--7-7--7-7----7-x--7-7--7-7------
A -7-x--5-5--7-7----7-x--5-5--7-7------
E -5-x-------5-5----5-x-------5-5------

*Break (slow downstrokes- distorted)
E ------------------------------
B ------------------------------
G --------9--------------9------
D -4------9-------7------9------
A -4------7(16x)--7------7(16x)-
E -2(16x)---------5(16x)--------

Song Order:
Intro (1x)
Verse 1 (2x)                   I think thats about it, its a nice slow
Chorus 1 (1x)                  song, and i like to play it. For any
Verse 2 (2x)                   comments or ?s, email me RoCkY10078@netscape.net
Chorus 2 (1x)                   THanks!
Break (2x)
Intro (1x)
Chorus (1x)- all distorted notes
Suggest correction
What's this?
You can suggest a correction to this tab. Community and Mods will review your correction and vote to approve or reject it.
comments
print report bad tab
1 comment total.
0 reply
RaZerPunk130875 223 wrote on October 25 2002, 12:00 am

THis is another tab by RaZeRpUnk, sorry
i will remeber to sign in next time

guest
You may want to rate the tab now too:
select rating
Please do not post tabs as comments. Select "correction" instead!