Oops, an error
Loading. Please wait.

Night Alone Tab

version 2
version 2

Whole song

Interactive

by Mest
337 views 1 this week
no commentswrite comment
1 2 3 4 5
2 more votes to show rating
add to favorites
launch autoscroll
font size
0
reset
how to read this tab
guitar tuner
Autoscroll
slow
fast
+/-
esc
set tempo
stop
Help us to improve Ultimate-Guitar.com Take our survey!
×
Author
Standard Tuning:
E A D G B E

* = Palm Mute
i = 11
/ = slide upwards
\ = slide downwards

{Intro}
[Guitar 1]
E-----------------------------------------------|
B----0---0------0---0------0---0------0---0-----|
G--1---1---1--1---1---1--3---3---3--------------|
D-----------------------------------4---4---4---| x4
A-----------------------------------------------|
E-----------------------------------------------|

[Guitar 2]...(comes in on guitar 1's 3rd time playing intro)
E-----------------------------------------------|
B-----------------------------------------------|
G-----------------------------------------------|
D--66--------------------88---------44----------|
A--66--------------------88---------44----------|
E--44--------------------66---------22----------|
   **                    **         **
------------------------------------------------|
------------------------------------------------|
------------------------------------------------|
---66---------66---------88---------44----------|
---66---------66---------88---------44----------|
---44---------44---------66---------22----------|
   **         **         **         **
~~~~~~~~~~~~~~~~~~~~~~~~~~~~~~~~~~~~~~~~~~~~~~~~
{Verse 1}
[Guitar 1]
------------------------------------------------|
------------------------------------------------|
--------------------44444444--------------------|
--2222222222222222--44444444--44444444----------| x4
--2222222222222222--22222222--44444444----------|
--0000000000000000------------22222222----------|

------------------------------------------------|
----0---0------0---0------0---0------0---0------|
--1---1---1--1---1---1--3---3---3---------------|
-----------------------------------4---4---4----|
------------------------------------------------|
------------------------------------------------|

------------------------------------------------|
------------------------------------------------|
--------------------44444444--------------------|
--2-----------------44444444--44444444----------|
--2(hold out)-------22222222--44444444----------|
--0---------------------------22222222----------|

[Guitar 2]
------------------------------------------------|
------------------------------------------------|
--------------------44444444--------------------|
--2222222222222222--44444444--44444444----------| x4
--2222222222222222--22222222--44444444----------|
--0000000000000000------------22222222----------|

------------------------------------------------|
------------------------------------------------|
------------------------------------------------|
---66---------66---------88---------44----------|
---66---------66---------88---------44----------|
---44---------44---------66---------22----------|
   **         **         **         **

------------------------------------------------|
------------------------------------------------|
--------------------44444444--------------------|
--6(hold out)-------44444444--44444444----------|
--------------------22222222--44444444----------|
------------------------------22222222----------|
~~~~~~~~~~~~~~~~~~~~~~~~~~~~~~~~~~~~~~~~~~~~~~~~
{Chorus}
[Guitar 1]
--------------------------------------------------------------------------|
--------------------------------------------------------------------------|
--------------------8888888888888888--9999999999999999--------------------|
--9999999999999999--8888888888888888--9999999999999999--iiii999988889999--| x2
--9999999999999999--6666666666666666--7777777777777777--iiii999988889999--|
--7777777777777777--------------------------------------9999777766667777--|

[Guitar 2]
--------------------------------------------------------------------------|
--------------------------------------------------------------------------|
---------------------888888888888888--iiii999988889999--9999999999999999--|
--99999999999999999--888888888888888--iiii999988889999--9999999999999999--| x2
--99999999999999999--666666666666666--9999777766667777--7777777777777777--|
--77777777777777777-------------------------------------------------------|
~~~~~~~~~~~~~~~~~~~~~~~~~~~~~~~~~~~~~~~~~~~~~~~~~~~~~~~~~~~~~~~~~~~~~~~~~~
{Verse 2}
[Guitar 1]
------------------------------------------------|
----0---0------0---0------0---0------0---0------|
--1---1---1--1---1---1--3---3---3---------------|
-----------------------------------4---4---4----|
------------------------------------------------|
------------------------------------------------|

------------------------------------------------|
------------------------------------------------|
----------------------44-4-44-4-----------------|
--22-2-22-2-22-2-22-2-44-4-44-4-44-4-44-4-------| x4
--22-2-22-2-22-2-22-2-22-2-22-2-44-4-44-4-------|
--00-0-00-0-00-0-00-0-----------22-2-22-2-------|
  **   **   **   **   **   **   **   **

[Guitar 2]
on guitar 1's 3rd time...
------------------------------------------------|
------------------------------------------------|
----------------------44-4-44-4-----------------|
--22-2-22-2-22-2-22-2-44-4-44-4-44-4-44-4-------| x2
--22-2-22-2-22-2-22-2-22-2-22-2-44-4-44-4-------|
--00-0-00-0-00-0-00-0-----------22-2-22-2-------|
  **   **   **   **   **   **   **   **
~~~~~~~~~~~~~~~~~~~~~~~~~~~~~~~~~~~~~~~~~~~~~~~~
{Chorus}
[Guitar 1]
--------------------------------------------------------------------------|
--------------------------------------------------------------------------|
--------------------8888888888888888--9999999999999999--------------------|
--9999999999999999--8888888888888888--9999999999999999--iiii999988889999--| x2
--9999999999999999--6666666666666666--7777777777777777--iiii999988889999--|
--7777777777777777--------------------------------------9999777766667777--|

[Guitar 2]
--------------------------------------------------------------------------|
--------------------------------------------------------------------------|
---------------------888888888888888--iiii999988889999--9999999999999999--|
--99999999999999999--888888888888888--iiii999988889999--9999999999999999--| x2
--99999999999999999--666666666666666--9999777766667777--7777777777777777--|
--77777777777777777-------------------------------------------------------|
~~~~~~~~~~~~~~~~~~~~~~~~~~~~~~~~~~~~~~~~~~~~~~~~~~~~~~~~~~~~~~~~~~~~~~~~~~
{Bridge}
[Guitar 1]
------------------------------------------------|
------------------------------------------------|
------------------------------------------------|
--66666666--88888888--99999999--iiiiiiii--------| x2
--66666666--88888888--99999999--iiiiiiii--------|
--44444444--66666666--77777777--99999999--------|

------------------------------------------------|
------------------------------------------------|
------------------------------------------------|
--2-------------------2----------////////-------|
--2(hold out----------2(hold out)////////-------|
--0-------------------0----------////////-------|


[Guitar 2]
on guitar 1's 2nd time
------------------------------------------------|
------------------------------------------------|
----------------------44444444--66666666--------|
--66666666--44444444--44444444--66666666--------|
----------------------22222222--44444444--------|
------------------------------------------------|

------------------------------------------------|
------------------------------------------------|
------------------------------------------------|
--2-------------------2----------\\\\\\\\-------|
--2(hold out----------2(hold out)\\\\\\\\-------|
--0-------------------0----------\\\\\\\\-------|
~~~~~~~~~~~~~~~~~~~~~~~~~~~~~~~~~~~~~~~~~~~~~~~~
{Chorus pt.1}
[Guitar 1]
--------------------------------------------------------7-----------------|
--------------------------------------------------------7(let ring)-------|
--------------------------------------------------------7-----------------|
--------------------------------------------------------------------------|
--------------------6666666666666666--7777777777777777--------------------|
--7777777777777777--------------------------------------------------------|
  ****************  ****************  ****************

{Chorus pt.2}
[Guitar 1]
--------------------------------------------------------------------------|
--------------------------------------------------------------------------|
--------------------8888888888888888--9999999999999999--------------------|
--9999999999999999--8888888888888888--9999999999999999--iiii999988889999--| x2
--9999999999999999--6666666666666666--7777777777777777--iiii999988889999--|
--7777777777777777--------------------------------------9999777766667777--|

[Guitar 2]
--------------------------------------------------------------------------|
--------------------------------------------------------------------------|
---------------------888888888888888--iiii999988889999--9999999999999999--|
--99999999999999999--888888888888888--iiii999988889999--9999999999999999--| x2
--99999999999999999--666666666666666--9999777766667777--7777777777777777--|
--77777777777777777-------------------------------------------------------|
~~~~~~~~~~~~~~~~~~~~~~~~~~~~~~~~~~~~~~~~~~~~~~~~~~~~~~~~~~~~~~~~~~~~~~~~~~
{Outro pt.1}
[Guitar 1]
------------------------------------------------|
------------------------------------------------|
------------------------------------------------|
--666--666888--888999--999999--999666-----------|
--666--666888--888999--999999--999666-----------|
--444--444666--666777--777666--666444-----------|

------------------------------------------------|
------------------------------------------------|
------------------------------------------------|
--666--666888--888999--999999-------------------|
--666--666888--888999--999999-------------------|
--444--444666--666777--777666-------------------|
start outro pt.2 somewhat immediately after you play this.  listen to the song and 
know.
[Guitar 2]
------------------------------------------------|
------------------------------------------------|
------------------------------------------------|
--666--666888--888999--999999--999666-----------|
--666--666888--888999--999999--999666-----------|
--444--444666--666777--777666--666444-----------|

------------------------------------------------|
------------------------------------------------|
------------------------------------------------|
--666--666888--888999--999999--999-6-6----------|
--666--666888--888999--999999--999-6-6----------|
--444--444666--666777--777666--666-4-4----------|

{Outro pt.2}
[guitar 1]
------------------------------------------------|
----0---0------0---0------0---0------0---0------|
--1---1---1--1---1---1--3---3---3---------------|
-----------------------------------4---4---4----| x2
------------------------------------------------|
------------------------------------------------|

----------------|
--0-------------|
--1(let ring)---|
----------------|
----------------|
----------------|
Suggest correction
Give kudos to tab author, rate the tab!
1 2 3 4 5
comments
print report bad tab
guest
You may want to rate the tab now too:
select rating
Wanna post a correction for this tab? Suggest correction