Oops, an error
Loading. Please wait.

Nightmare Tab

version 1
version 1

Whole song

Interactive

by Mest
191 views 1 this week
no commentswrite comment
1 2 3 4 5
please rate
add to favorites
launch autoscroll
font size
0
reset
how to read this tab
guitar tuner
Autoscroll
slow
fast
+/-
esc
set tempo
stop
Help us to improve Ultimate-Guitar.com Take our survey!
×
---------------------------------------------------------------------------
                             NIGHTMARE - Mest
---------------------------------------------------------------------------
Tabbed by:Ross Ribblett
Email:RossRibblett24@yahoo.com

Tuning:standard

 *INTRO* 
e|-----------------------------------------------------------|
B|-----------------------------------------------------------|
G|--99-99-99-9-9--55-55-55-55-5------------------------------|
D|--xx-xx-xx-x-x--xx-xx-xx-xx-x------------------------------| x 4
A|--77-77-77-7-7--33-33-33-33-3------------------------------|
E|-----------------------------------------------------------|

e|-----------------------------------------------------|
B|-----------------------------------------------------|
G|----------55555555----------55555555-----------------|
D|-22222222-55555555----------55555555-----------------|
A|-22222222-33333333-22222222-33333333-----------------|
E|-00000000----------00000000--------------------------|

  *Verse*
e|----------------------------------------------------|
B|----------------------------------------------------|
G|----------55555555----------------------------------|
D|-22222222-55555555-55555555-77777777----------------|
A|-22222222-33333333-55555555-77777777----------------|
E|-00000000----------33333333-55555555----------------|
   xxxxxxxx xxxxxxxx xxxxxxxx xxxxxxxx
e|-------------------------------------------------------|
B|-------------------------------------------------------|
G|-----------55-5-55-5-----------------------------------|
D|-22-2-22-2-55-5-55-5-55-5-55-5-------------------------|
A|-22-2-22-2-33-3-33-3-55-5-55-5-77-7-77-7---------------|
E|-00-0-00-0-----------33-3-33-3-55-5-55-5---------------|
   xx   xx   xx   xx   xx   xx   xx   xx

  *CHORUS* 1
e|------------------------------------------------------------------------|
B|------------------------------------------------------------------------|
G|-4-5-------------------------------------------------------555555555555-|
D|-2-3-5-----55-55----55-55----44-44---44-44---22-22---22-22-555555555555-|
A|-----3-----55-55----55-55----55-55---55-55---22-22---22-22-333333333333-|
E|--------/--33-33----33-33--/-33-33---33-33-/-00-00---00-00--------------|

 *CHORUS* 2
e|---------------------------------------------------------------------|
B|---------------------------------------------------------------------|
G|----------------------------------------------------5555555555555555-|
D|-5555555555555555-4444444444444444-2222222222222222-5555555555555555-|
A|-5555555555555555-5555555555555555-2222222222222222-3333333333333333-|
E|-3333333333333333-3333333333333333-0000000000000000------------------|


 *BRIDGE*
e|----------------------------------------------------------------------|
B|----------------------------------------------------------------------|
G|-5~--------555555-5~------5555--------------------55-55---------------|
D|-5~--------555555-5~-2222-5555--------------22-22-55-55-55-55-77-77---|
A|-3~--------333333-3~-2222-3333-5555-7777----22-22-33-33-55-55-77-77---|
E|---------------------0000------3333-5555-//-00-00-------33-33-55-55---|


| /  slide up
| \  slide down
| h  hammer-on
| p  pull-off
| ~  vibrato
| +  harmonic
| x  Mute note
===========================================================================
Suggest correction What's this?
You can suggest a correction to this tab. Community and Mods will review your correction and vote to approve or reject it.
comments
We did not receive enough feedback on this tab! Please rate:
print report bad tab
1 2 3 4 5
I want to post or [tab]
guest
You may want to rate the tab now too:
select rating
Please do not post tabs as comments. Select "correction" instead!