Oops, an error
Loading. Please wait.

Nightmare Tab

version 2
version 2

Whole song

Interactive

by Mest
74 views 1 this week
no commentswrite comment
1 2 3 4 5
3 more votes to show rating
add to favorites
launch autoscroll
font size
0
reset
how to read this tab
guitar tuner
Autoscroll
slow
fast
+/-
esc
set tempo
stop
Help us to improve Ultimate-Guitar.com Take our survey!
×
Difficulty
intermediate
-------------------------------------------------------------------------
                              NIGHTMARE - Mest
-------------------------------------------------------------------------
Tabbed by:Ross Ribblett
Email:RossRibblett24@yahoo.com

Tuning:standard

  intro
e|-------------------------------------------------------|
B|-------------------------------------------------------|
G|-9999999-99--55555-55-99999-99-55555-55----------------|
D|-xxxxxxx-xx--xxxxx-xx-xxxxx-xx-xxxxx-xx----------------|
A|-7777777-77--33333-33-77777-77-33333-33----------------|
E|-------------------------------------------------------|

e|-------------------------------------------------------|
B|-------------------------------------------------------|
G|-----------55555555----------55555555------------------|
D|-222222222-55555555-22222222-55555555------------------|
A|-222222222-33333333-22222222-33333333------------------|
E|-000000000----------00000000---------------------------|

  (my heart is pounding...)
e|---------------------------------------------------------------------|
B|---------------------------------------------------------------------|
G|----------55555555---------------------------555-555-----------------|
D|-22222222-55555555-55555555-44444444-222-222-555-555-555-555-444-444-|
A|-22222222-33333333-55555555-44444444-222-222-333-333-555-555-444-444-|
E|-00000000----------33333333-22222222-000-000---------333-333-222-222-|
   ........ ........ ........ ........ ..  ..  ..  ..  ..  ..  ..  ..
  (i've been here before..)
e|-----------------------------------------------------|
B|-----------------------------------------------------|
G|--------------------------------55555555555555555----|
D|-55-55-4444-44------22-22222-22-55555555555555555----|
A|-55-55-4444-44------22-22222-22-33333333333333333----|
E|-33-33-2222-22-12/2-00-00000-00----------------------|
           ..

e|------------------------------------------------|
B|------------------------------------------------|
G|-----------555555555----------55555555----------|
D|-222222222-555555555-22222222-55555555----------|
A|-222222222-333333333-22222222-33333333----------|
E|-000000000-----------00000000-------------------|
 |               play together                    |
e|------------------------------------------------|
B|------------------------------------------------|
G|------------------------------------------------|
D|------------------------------------------------|
A|--10h9-10h9-555-10h9-10h9-555-------------------|
E|------------------------------------------------|

 (my heart is breaking...)
e|-------------------------------------------------------------------|
B|-------------------------------------------------------------------|
G|--------5~-------------------------------555-555-------------------|
D|-2~-----5~-----55555555-44444444-222-222-555-555-55555555-44444444-|
A|-2~-----3~-----55555555-44444444-222-222-333-333-55555555-44444422-|
E|-0~------------33333333-22222222-000-000---------33333333-22222222-|
                                   ..  ..  ..  ..   
 (i've been here before..)
e|-------------------------------------------------------------------------|
B|-------------------------------------------------------------------------|
G|----------------------------------------------------55555555555555555----|
D|-5555555555555555-4444444444444444-2222222222222222-55555555555555555----|
A|-5555555555555555-4444444444444444-2222222222222222-33333333333333333----|
E|-3333333333333333-2222222222222222-0000000000000000----------------------|

  bridge
e|-------------------------------------------------------------------|
B|-------------------------------------------------------------------|
G|-5~----------------------------------555555555---------------------|
D|-5~----------------2222222--22222222-555555555-55555555-44444444---|
A|-3~----------------2222222--22222222-333333333-55555555-44444444---|
E|-------------------0000000--00000000-----------33333333-22222222---|
                              ........ ......... ........ ........

(i've been here before..)
e|-------------------------------------------------------------------------|
B|-------------------------------------------------------------------------|
G|----------------------------------------------------55555555555555555----|
D|-5555555555555555-4444444444444444-2222222222222222-55555555555555555----|
A|-5555555555555555-4444444444444444-2222222222222222-33333333333333333----|
E|-3333333333333333-2222222222222222-0000000000000000----------------------|


| /  slide up
| \  slide down
| h  hammer-on
| p  pull-off
| ~  vibrato
| +  harmonic
| x  Mute note
============================================================================
Suggest correction
Give kudos to tab author, rate the tab!
1 2 3 4 5
comments
print report bad tab
guest
You may want to rate the tab now too:
select rating
Wanna post a correction for this tab? Suggest correction