Oops, an error
Loading. Please wait.

Return To Selfloathing Tab

version 2
version 2

Whole song

by Mest
152 views 1 this week
no commentswrite comment
1 2 3 4 5
3 more votes to show rating
add to favorites
launch autoscroll
font size
0
reset
how to read this tab
guitar tuner
Autoscroll
slow
fast
+/-
esc
set tempo
stop
Help us to improve Ultimate-Guitar.com Take our survey!
×
Author
Difficulty
novice
-------------------------------------------------------------------------------
                    Return to Self-Loathing - MEST
-------------------------------------------------------------------------------
Tabbed by: Sumguitar41  

Tuning: Standard

 INTRO: Guitar 1 (clean)

e|--------------------------------------------------|
B|--------------------------------------------------|
G|-----5-----5-----7-----7-----4-----4-----7-----7--|
D|---5-----5-----5-----5-----5-----5-----5-----5----| x3
A|--3-3---3-3---3-3---3-3---3-3---3-3---3-3---3-3---|
E|--------------------------------------------------|

       Guitar 2

e|------------------------------------------|
B|------------------------------------------|
G|--55555555--------------------------------|
D|--55555555--55555555--77777777--33333333--|
A|--33333333--55555555--77777777--33333333--| x2
E|------------33333333--55555555--11111111--|

 VERSE:

e|----------------------------------------------------------------------|
B|----------------------------------------------------------------------|
G|--5------2------5------2----------------------------------------------|
D|--5-x16--2-x16--5-x16--2-x16--3333-7777-55555555--3333-7777-55555555--| x2
A|--3------0------3------0------3333-7777-55555555--3333-7777-55555555--|
E|------------------------------1111-5555-33333333--1111-5555-33333333--|


 CHORUS:

e|---------------------------|
B|---------------------------|
G|--5------------------------|
D|--5-x16--5------7------3~--|
A|--3------5-x16--7-x16--3~--| 
E|---------3------5------1~--|


   (Clean)
e|--------------------------|
B|--------------------------|
G|-----4-----4-----4-----4--|
D|---5-----5-----5-----5----|
A|--3-3---3-3---3-3---3-3---|
E|--------------------------|


 VERSE:

e|----------------------------------------------------------------------|
B|----------------------------------------------------------------------|
G|--5------2------5------2----------------------------------------------|
D|--5-x16--2-x16--5-x16--2-x16--3333-7777-55555555--3333-7777-55555555--| x2
A|--3------0------3------0------3333-7777-55555555--3333-7777-55555555--|
E|------------------------------1111-5555-33333333--1111-5555-33333333--|
  pm**************************

 CHORUS:

e|------------------------------|
B|------------------------------|
G|--5---------------------------|
D|--5-x16--5------7------3------| x2
A|--3------5-x16--7-x16--3-x16--| 
E|---------3------5------1------|

 BRIDGE:

e|---------------------------------------------|
B|---------------------------------------------|
G|---------------------------------------------|
D|--77777777--22222222xx--33333333--2222-3333--|
A|--77777777--22222222xx--33333333--2222-3333--| x5
E|--55555555--00000000xx--11111111--0000-1111--|

e|-------------------|
B|-------------------|
G|--5----------------|
D|--5~--5----7~--3~--|
A|--3---5-~--7~--3~--| 
E|------3----5~--1~--|


 CHORUS:

e|------------------------------|
B|------------------------------|
G|--5---------------------------|
D|--5-x16--5------7------3------| x2
A|--3------5-x16--7-x16--3-x16--| 
E|---------3------5------1------|


 OUTRO:

e|--------------------------------------------------|
B|--------------------------------------------------|
G|-----5-----5-----7-----7-----4-----4-----7-----7--| 
D|---5-----5-----5-----5-----5-----5-----5-----5----| 
A|--3-3---3-3---3-3---3-3---3-3---3-3---3-3---3-3---|
E|--------------------------------------------------|


e|------------------------------------------|
B|------------------------------------------|
G|--55555555--------------------------------|
D|--55555555--55555555--77777777--33333333--| 
A|--33333333--55555555--77777777--33333333--| 
E|------------33333333--55555555--11111111--|


 End on:

e|----------------------|
B|----------------------|
G|--55555555------------|
D|--55555555--55555555--| 
A|--33333333--55555555--| 
E|------------33333333--|


| /  slide up
| \  slide down
| h  hammer-on
| p  pull-off
| ~  let ring
| +  harmonic
| x  Mute note
===============================================================================
Suggest correction
Give kudos to tab author, rate the tab!
1 2 3 4 5
comments
print report bad tab
guest
You may want to rate the tab now too:
select rating
Wanna post a correction for this tab? Suggest correction