Oops, an error
Loading. Please wait.

Take Me Away Cried Out To Heaven Tab

version 1
version 1

Whole song

Interactive

by Mest
1,662 views 6 this week
no commentswrite comment
1 2 3 4 5
excellent!
x 3
add to favorites
launch autoscroll
font size
0
reset
how to read this tab
guitar tuner
Tab Pro tools
  • play this tab
  • loop segment
  • change instrument
  • show fretboard
  • metronome
×
Best way to learn
"Take Me Away Cried Out To Heaven"
Autoscroll
slow
fast
+/-
esc
set tempo
stop
Contributor
Tabbed by: Michael
Email: HeavyDistortion8@aol.com

Tuning: Standard

Mest's first single off of their new CD Photographs.

INTRO
Rhythm Guitar-Tony
e|------------------------------------|
B|------------------------------------|
G|--------------7---------------------| X2
D|--777-7---2---7(ring out)-----------| 
A|--777-5---2---5---------------------|
E|--555-5---0-------------------------|
   FAST

INTRO
Lead Guitar-Jeremiah
e|------------------------------------|
B|------------------101010---(Ska-----|
G|--------------7----9-9-9-Upstroke)--| X2
D|--777-7---2---7---------------------| 
A|--777-5---2---5---------------------|
E|--555-5---0-------------------------|
   FAST

VERSE
Rhythm Guitar-Tony
*Silent*

VERSE
Lead Guitar-Jeremiah
e|------------------------------------|
B|--10-9-7777--10-9-10101010----------|
G|---9-9-9999---9-9--9-9-9-9----------| X3
D|------------------------------------|
A|-------(Ska Upstroke)---------------|
E|------------------------------------|

e|------------------------------------|
B|--10-9-777-77<(Strum----------------|
G|---9-9-999-99<-Down)----------------| X1
D|------------------------------------|
A|(Ska Upstroke)----------------------|
E|------------------------------------|

PRE-CHORUS
Rhythm Guitar-Tony
e|-------------------------------------------------------------------|
B|-------------------------------------------------------------------|
G|--22---------77777777-22222222-------------------------------------|
D|--22--222222-77777777-22222222-22222222----------------------------|
A|--00--222222-55555555-00000000-22222222----------------------------|
E|------000000-------------------00000000----------------------------|
   FAST

e|-------------------------------------------------------------------|
B|-------------------------------------------------------------------|
G|-----------77777777------------------------------------------------|
D|--22222222-77777777-77777777-66666-666--5--------------------------|
A|--22222222-55555555-77777777-77777-777--5(Ring Out)----------------|
E|--00000000----------55555555-44444-444--3--------------------------|
                                     xxx
PRE-CHORUS
Lead Guitar-Jeremiah
e|-------------------------------------------------------------------|
B|-------------------------------------------------------------------|
G|--999999-77777777--------------------------------------------------|
D|--999999-77777777-77777777-22222222--------------------------------|
A|--777777-55555555-77777777-22222222--------------------------------|
E|------------------55555555-00000000--------------------------------|

e|-------------------------------------------------------------------|
B|-------------------------------------------------------------------|
G|--99999999-77777777------------------------------------------------|
D|--99999999-77777777-77777777-66666-666--5--------------------------|
A|--77777777-55555555-77777777-77777-777--5(Ring Out)----------------|
E|--------------------55555555-44444-444--3--------------------------|
                                     xxx
CHORUS
Rhythm Guitar-Tony
e|-------------------------------------------------------------------|
B|-------------------------------------------------------------------|
G|--22222222----------7777777777777777-------------------------------| X2
D|--22222222-22222222-7777777777777777-------------------------------|
A|--00000000-22222222-5555555555555555-------------------------------|
E|-----------00000000------------------------------------------------|

CHORUS
Lead Guitar-Jeremiah
e|-------------------------------------------------------------------|
B|-------------------------------------------------------------------|
G|-------------------------------------------------------------------| X2
D|--77777777-22222222-7777777777777777-------------------------------|
A|--77777777-22222222-5554445554445544-------------------------------|
E|--55555555-00000000------------------------------------------------|

VERSE
Rhythm Guitar-Tony
e|------------------------------------|
B|------------------------------------|
G|--222-----77777777------------------| X2(Come in half way 
D|--222-222-77777777------------------|    through the verse)
A|--000-222-55555555------------------|
E|------000---------------------------|

VERSE
Lead Guitar-Jeremiah
e|------------------------------------|
B|--10-9-7777--10-9-10101010----------|
G|---9-9-9999---9-9--9-9-9-9----------| X3
D|------------------------------------|
A|-------(Ska Upstroke)---------------|
E|------------------------------------|

e|------------------------------------|
B|--10-9-777-77<(Strum----------------|
G|---9-9-999-99<-Down)----------------| X1
D|------------------------------------|
A|(Ska Upstroke)----------------------|
E|------------------------------------|

PRE-CHORUS
Rhythm Guitar-Tony
e|-------------------------------------------------------------------|
B|-------------------------------------------------------------------|
G|--22---------77777777-22222222-------------------------------------|
D|--22--222222-77777777-22222222-22222222----------------------------|
A|--00--222222-55555555-00000000-22222222----------------------------|
E|------000000-------------------00000000----------------------------|
   FAST

e|-------------------------------------------------------------------|
B|-------------------------------------------------------------------|
G|-----------77777777------------------------------------------------|
D|--22222222-77777777-77777777-66666-666--5--------------------------|
A|--22222222-55555555-77777777-77777-777--5(Ring Out)----------------|
E|--00000000----------55555555-44444-444--3--------------------------|
                                     xxx
PRE-CHORUS
Lead Guitar-Jeremiah
e|-------------------------------------------------------------------|
B|--10--12--9-----10--12--9--8(Ring Out)-----------------------------|
G|------------------------------------------------------|
D|-------------------------------------------------------------------|
A|-------------------------------------------------------------------|
E|-------------------------------------------------------------------|

CHORUS
Rhythm Guitar-Tony
e|-------------------------------------------------------------------|
B|-------------------------------------------------------------------|
G|--22222222----------7777777777777777-------------------------------| X2
D|--22222222-22222222-7777777777777777-------------------------------|
A|--00000000-22222222-5555555555555555-------------------------------|
E|-----------00000000------------------------------------------------|

e|-------------------------------------------------------------------|
B|-------------------------------------------------------------------|
G|--22222222---------------------------------------------------------| X1
D|--22222222-22222222-7777777777777777-------------------------------|
A|--00000000-22222222-5554445554445544-------------------------------|
E|-----------00000000------------------------------------------------|

e|-------------------------------------------------------------------|
B|-------------------------------------------------------------------|
G|--22222222--------------------------------------------2------------| X1
D|--22222222-22222222-77777777777777777777777777777777--2(let ring)--|
A|--00000000-22222222-55544455544455445554445554445544--0------------|
E|-----------00000000------------------------------------------------|

CHORUS
Lead Guitar-Jeremiah
e|-------------------------------------------------------------------|
B|-------------------------------------------------------------------|
G|-------------------------------------------------------------------| X2
D|--77777777-22222222-7777777777777777-------------------------------|
A|--77777777-22222222-5554445554445544-------------------------------|
E|--55555555-00000000------------------------------------------------|

e|-------------------1212121212121212-101010999101010999101099-------|
B|--1010101010101010--x-x-x-x-x-x-x-x--x-x-xxxx-x-x-xxxx-x-xxx-------|
G|---x-x-x-x-x-x-x-x--9-9-9-9-9-9-9-9--7-7-7666-7-7-7666-7-766-------| X1
D|---7-7-7-7-7-7-7-7-------------------------------------------------|
A|-------------------------------------------------------------------|
E|-------------------------------------------------------------------|

e|------------------1212121212121212-101010999101010999101099101010999101010999101099----------------|
B|-1010101010101010--x-x-x-x-x-x-x-x--x-x-xxxx-x-x-xxxx-x-xxx-x-x-xxxx-x-x-xxxx-x-xxx--10------------|
G|--x-x-x-x-x-x-x-x--9-9-9-9-9-9-9-9--7-7-7666-7-7-7666-7-766-7-7-7666-7-7-7666-7-766---x(Ring-Out)--|X1 
D|--7-7-7-7-7-7-7-7---------------------------------------------------------------------7------------|
A|---------------------------------------------------------------------------------------------------|
E|---------------------------------------------------------------------------------------------------|

BRIDGE (1st Half)
Rhythm Guitar-Tony
*Silent*

BRIDGE (1st Half)
Lead Guitar-Jeremiah
e|------------------------------------|
B|--10---12---9---10------------------|
G|-----9--------9---------------------| X4
D|------------------------------------|
A|------(Lightly)---------------------|
E|------------------------------------|

e|------------------------------------|
B|--10-9-12121212---10-9-10101010-----|
G|---9-9--9-9-9-9----9-9--9-9-9-9-----| X2
D|------------------------------------|
A|----------(SKA UPSTROKE)------------|
E|------------------------------------|

e|---------------|
B|---------------|
G|---------------|
D|--7(Ring Out)--|
A|---------------|
E|---------------|

*NO GUITAR*
"I never wanted it to be this way..."

BRIDGE(2nd Half)
Rhythm Guitar-Tony
e|------------------------------------|
B|------------------------------------|
G|--222-----77777777------------------| X5
D|--222-222-77777777------------------|    
A|--000-222-55555555------------------|
E|------000---------------------------|
    xxx xxx xxxxxxxx
e|------------------------------------|
B|------------------------------------|
G|--222-----77777777------------------| X1
D|--222-222-77777777------------------|    
A|--000-222-55555555------------------|
E|------000---------------------------|
    xxx xxx xxxxOpen Up

e|--------|
B|--------|
G|--------| (Listen Closley,
D|--------|  Easy to Miss)
A|--------|
E|--12/7--|

BRIDGE(2nd Half)
Lead Guitar-Jeremiah
e|------------------------------------|
B|--10-9-7777--10-9-10101010----------|
G|---9-9-9999---9-9--9-9-9-9----------| X2
D|------------------------------------|
A|-------(Ska Upstroke)---------------|
E|------------------------------------|

e|------------------------------------|
B|--10-9-7777--10-9-1010p9------------|
G|---9-9-9999---9-9--9-9--------------| X1
D|------------------------------------|
A|-------(Ska Upstroke)---------------|
E|------------------------------------|

CHORUS
Rhythm Guitar-Tony
e|-------------------------------------------------------------------|
B|-------------------------------------------------------------------|
G|--22222222---------------------------------------------------------| X4
D|--22222222-22222222-7777777777777777-------------------------------|
A|--00000000-22222222-5554445554445544-------------------------------|
E|-----------00000000------------------------------------------------|

CHORUS
Lead Guitar-Jeremiah
e|--------------------1212121212121212-101010999101010999101099------|
B|---------------------x-x-x-x-x-x-x-x--x-x-xxxx-x-x-xxxx-x-xxx------|
G|---------------------9-9-9-9-9-9-9-9--7-7-7666-7-7-7666-7-766------| X2
D|--77777777-22222222------------------------------------------------|
A|--77777777-22222222------------------------------------------------|
E|--55555555-00000000------------------------------------------------|

e|-------------------1212121212121212-101010999101010999101099-------|
B|--1010101010101010--x-x-x-x-x-x-x-x--x-x-xxxx-x-x-xxxx-x-xxx-------|
G|---x-x-x-x-x-x-x-x--9-9-9-9-9-9-9-9--7-7-7666-7-7-7666-7-766-------| X1
D|---7-7-7-7-7-7-7-7-------------------------------------------------|
A|-------------------------------------------------------------------|
E|-------------------------------------------------------------------|

e|------------------1212121212121212-101010999101010999101099101010999101010999101099-----|
B|-1010101010101010--x-x-x-x-x-x-x-x--x-x-xxxx-x-x-xxxx-x-xxx-x-x-xxxx-x-x-xxxx-x-xxx-----|
G|--x-x-x-x-x-x-x-x--9-9-9-9-9-9-9-9--7-7-7666-7-7-7666-7-766-7-7-7666-7-7-7666-7-766-----|X1 
D|--7-7-7-7-7-7-7-7-----------------------------------------------------------------------|
A|----------------------------------------------------------------------------------------|
E|----------------------------------------------------------------------------------------|
e|----------------------------------------------------------------------------------------|

OUTRO
Both Guitars
e|------------------------------------|
B|------------------------------------|
G|-------7--------7-------------------| 
D|--77-2-7----7-2-7(ring out)---------| 
A|--77-2-5----7-2-5-------------------|
E|--55-0------5-0---------------------|


| /  slide up
| \  slide down
| h  hammer-on
| p  pull-off
| ~  vibrato
| +  harmonic
| x  Mute note
===============================================================================
comments
We did not receive enough feedback on this tab! Please rate:
print report bad tab
1 2 3 4 5
I want to post or [tab]
guest
You may want to rate the tab now too:
select rating
Please do not post tabs as comments. Select "correction" instead!