Oops, an error
Loading. Please wait.

The Innocent Tab

version 2
version 2

Whole song

by Mest
45 views 1 this week
no commentswrite comment
1 2 3 4 5
please rate
add to favorites
launch autoscroll
font size
0
reset
how to read this tab
guitar tuner
Autoscroll
slow
fast
+/-
esc
set tempo
stop
Help us to improve Ultimate-Guitar.com Take our survey!
×
Author
----------------------------------------------------------------------------
                The Innocent - Mest/Goldfinger/Good Charlotte
----------------------------------------------------------------------------
Tabbed by: Nick
Email: pukesthedayaway@yahoo.com

3 great bands!

Tuning: Standard

Intro:
e|--10p9---------|--10p9-------------|--10--10-----------------------------|
B|--------10--7--|--------10--7--10--|---8--10-----------------------------|
G|---------------|-------------------|-------------------------------------|
D|---------------|-------------------|-----------0~------------------------|
A|---------------|-------------------|-------------------------------------|
E|---------------|-------------------|-------------------------------------|

Verse: listen for the pm
e|------------------------------------------------------------------------|
B|------------------------------------------------------------------------|
G|---77777777------------------------------77777777-----------------------|
D|---77777777-77777777-99999999-55555555---77777777-77777777--5~----------|
A|---55555555-77777777-99999999-55555555---55555555-77777777--5~----------|
E|------------55555555-77777777-33333333------------55555555--3~----------|

e|-------------------------------------------------------------------------|
B|-------------------------------------------------------------------------|
G|---77777777-------------------------------77777777-----------------------|
D|---77777777-77777777-99999999-55555555----77777777-77777777--555555555---|
A|---55555555-77777777-99999999-55555555----55555555-77777777--555555555---|
E|------------55555555-77777777-33333333-------------55555555--333333333---|

e|-------------------------------------------------------------------------|
B|-------------------------------------------------------------------------|
G|---77777777-------------------------------77777777-----------------------|
D|---77777777-77777777-99999999-55555555----77777777-77777777--5X5x5x5x5---|
A|---55555555-77777777-99999999-55555555----55555555-77777777--5x5x5x5x5---|
E|------------55555555-77777777-33333333-------------55555555--3x3x3x3x3---|

Chorus:
e|-------------------------------------------------------------------------|
B|-------------------------------------------------------------------------|
G|--77-777-----------------------------------------------------------7~----|
D|--77-777--77--99-999--44-55555555-77777777-9999999999999999--5~-7~-7~----|
A|--55-555--77--99-999--44-55555555-77777777-9999999999999999--5~-7~-5~----|
E|----------55--77-777--22-33333333-55555555-7777777777777777--3~-5~-------|

Solo: pick scratch first
e|-------------------------------------------------------------------------|
B|-------------------------------------------------------------------------|
G|--------------------------------------4-6-7-9----------------------------|
D|--------------------------------------x-x-x-x----------------------------|
A|-5-5-5-7-4-4--5--2-2---0---5-5-7-4-4--2-4-5-7----------------------------|
E|---------------------3---------------------------------------------------|

e|-------------------------------------------------------------------------|
B|-------------------------------------------------------------------------|
G|-------------------------------------------------------------------------|
D|--2p0-4p0-5p0-4p0---2p0-4p0-5p0-4p0---2p0-4p0-5p0-7p0-9p0-7p0-5p0-4p0----|
A|-------------------------------------------------------------------------|
E|-------------------------------------------------------------------------|
                                      |harmonics|
e|-------------------------------------------------------------------------|
B|-------------------------------------7------7----------------------------|
G|---------------------------------------7------7--------------------------|
D|--2p0-4p0-5p0-4p0--2p0-4p0-5p0-4p0-------7-------------------------------|
A|-------------------------------------------------------------------------|
E|-------------------------------------------------------------------------|
the solo is really pulloffs but they sound good without them

i submitted this mainly for the intro and solo. i added the verse and chorus too,
but you can look at other tabs around for betterness.
Suggest correction
What's this?
You can suggest a correction to this tab. Community and Mods will review your correction and vote to approve or reject it.
comments
We did not receive enough feedback on this tab! Please rate:
print report bad tab
1 2 3 4 5
guest
You may want to rate the tab now too:
select rating
Please do not post tabs as comments. Select "correction" instead!