Oops, an error
Loading. Please wait.

Walking On Broken Glass Tab

version 2
version 2

Whole song

Interactive

by Mest
1,105 views 1 this week
no commentswrite comment
1 2 3 4 5
please rate
add to favorites
launch autoscroll
font size
0
reset
how to read this tab
guitar tuner
Autoscroll
slow
fast
+/-
esc
set tempo
stop
Help us to improve Ultimate-Guitar.com Take our survey!
×
Author
Difficulty
novice
--------------------------------------------------------------------------------
		      Walking on Broken Glass - Mest
--------------------------------------------------------------------------------

Tuning: Standard

Intro: (clean)

e|-------------------------------------------------------------------|
B|-------------------------------------------------------------------|
G|------4-------4-------4-------4-------4-------4-------4-------4----|
D|----4---4---4---4---4---4---4---4---4---4---4---4---4---4---4---4--|
A|-------------------------------------------------------------------|
E|--4-------4-------2-------2-------0-------0-------2-------2--------|

e|------------------------------------------------------|
B|------------------------------------------------------|
G|------4-------4-------4-------4-------4-------4-------|
D|----4---4---4---4---4---4---4---4---4---4---4---4-4~--|
A|--------------------------------------------------x---|
E|--4-------4-------2-------2-------0-------0-------2~--|

(distortion)

e|----------------------------------------|
B|----------------------------------------|
G|-------------------/99999999-8888-6666--| x2
D|--66-66-66-66-6\4---xxxxxxxx-xxxx-xxxx--|
A|--66-66-66-66-6\4--/77777777-6666-4444--|
E|--44-44-44-44-4\2-----------------------|


Verse: (clean)

e|-------------------------------------------------------------------|
B|-------------------------------------------------------------------|
G|------4-------4-------4-------4-------4-------4-------4-------4----| x2
D|----4---4---4---4---4---4---4---4---4---4---4---4---4---4---4---4--|
A|-------------------------------------------------------------------|
E|--4-------4-------2-------2-------0-------0-------2-------2--------|

(distortion)
e|---------------------------------------------------------------------------|
B|---------------------------------------------------------------------------|
G|---------------------------------------------------------------------------|
D|--66666666-44444444-22222222-44444444-66666666-44444444-22222222-44444444--|
A|--66666666-44444444-22222222-44444444-66666666-44444444-22222222-44444444--|
E|--44444444-22222222-00000000-22222222-44444444-22222222-00000000-22222222--|
pm  ** *** * ** *** * ** *** * ** *** * ** *** * ** *** * ** *** * ** *** 


Chorus:

e|---------------------------------------|
B|---------------------------------------|
G|--44444444-----------------------------|
D|--44444444-44444444-66666\4--2~222222--| x4
A|--22222222-44444444-66666\4--2~222222--|
E|-----------22222222-44444\2--0~000000--|


Verse: (clean)

e|-------------------------------------------------------------------|
B|-------------------------------------------------------------------|
G|------4-------4-------4-------4-------4-------4-------4-------4----| x2
D|----4---4---4---4---4---4---4---4---4---4---4---4---4---4---4---4--|
A|-------------------------------------------------------------------|
E|--4-------4-------2-------2-------0-------0-------2-------2--------|

(distortion)
e|---------------------------------------------------------------------------|
B|---------------------------------------------------------------------------|
G|---------------------------------------------------------------------------|
D|--66666666-44444444-22222222-44444444-66666666-44444444-22222222-44444444--|
A|--66666666-44444444-22222222-44444444-66666666-44444444-22222222-44444444--|
E|--44444444-22222222-00000000-22222222-44444444-22222222-00000000-22222222--|
pm  ** *** * ** *** * ** *** * ** *** * ** *** * ** *** * ** *** * ** *** 

				    e|-------------------------------------|
	     (Guitar 2)             B|-------------------------------------|
	     Riff at end of verse   G|--8~~~~~~~-6~~~~~~~-4~~~~~~~-666666--|
				    D|--x--------x--------x--------xxxxxx--|
				    A|--6~~~~~~~-4~~~~~~~-2~~~~~~~-444444--|
				    E|-------------------------------------|


Chorus:

e|---------------------------------------|
B|---------------------------------------|
G|--44444444-----------------------------|
D|--44444444-44444444-66666\4--2~222222--| x4
A|--22222222-44444444-66666\4--2~222222--|
E|-----------22222222-44444\2--0~000000--|


Bridge:

e|----------------------------------------|
B|----------------------------------------|
G|-------------------/99999999-8888-6666--|
D|--66-66-66-66-6\4---xxxxxxxx-xxxx-xxxx--|
A|--66-66-66-66-6\4--/77777777-6666-4444--|
E|--44-44-44-44-4\2-----------------------|

e|------------------------------------------------|
B|------------------------------------------------|
G|--------------------/99999999-1111111111111111--| x4
D|--66666666666666\4---xxxxxxxx--x-x-x-x-x-x-x-x--|
A|--66666666666666\4--/77777777-9--9-9-9-9-9-9-9--|
E|--44444444444444\2------------------------------|
pm  **************

e|-----------------------------|
B|-----------------------------|
G|--99999999-1111111111111111--|
D|--xxxxxxxx--x-x-x-x-x-x-x-x--|
A|--77777777-9--9-9-9-9-9-9-9--|
E|-----------------------------|

e|-----------------------|
B|-----------------------|
G|-----------------------|
D|--6-4-2222-\-----------|
A|--6-4-2222-\-----------|
E|--4-2-0000-\pickslide--|

Chorus:

e|---------------------------------------|
B|---------------------------------------|
G|--44444444-----------------------------|
D|--44444444-44444444-66666\4--2~222222--| x4
A|--22222222-44444444-66666\4--2~222222--|
E|-----------22222222-44444\2--0~000000--|

Outro:


e|----------------------------------------|
B|----------------------------------------|
G|-------------------/99999999-8888-6666--| 
D|--66-66-66-66-6\4---xxxxxxxx-xxxx-xxxx--|
A|--66-66-66-66-6\4--/77777777-6666-4444--|
E|--44-44-44-44-4\2-----------------------|


e|---------------------|
B|---------------------|
G|---------------------|
D|--66-66-66-66-6\4~~--|
A|--66-66-66-66-6\4~~--|
E|--44-44-44-44-4\2~~--|



| /  slide up
| \  slide down
| ~  Let Ring
| *  Palm Mute (pm)
| x  Mute note
================================================================================
Suggest correction
What's this?
You can suggest a correction to this tab. Community and Mods will review your correction and vote to approve or reject it.
comments
We did not receive enough feedback on this tab! Please rate:
print report bad tab
1 2 3 4 5
guest
You may want to rate the tab now too:
select rating
Please do not post tabs as comments. Select "correction" instead!