Oops, an error
Loading. Please wait.

Wasting Time Tab

by Mest
687 views 1 this week
no commentswrite comment
1 2 3 4 5
please rate
add to favorites
launch autoscroll
font size
0
reset
how to read this tab
guitar tuner
Autoscroll
slow
fast
+/-
esc
set tempo
stop
Help us to improve Ultimate-Guitar.com Take our survey!
×
WASTING TIME - Mest

this is song has 2 guitars but i put both of them together so you can play it 
i havent done the first verse yet - ill put that up soon

-12----12----12---------------------------------------------------------------
----12----12----12-------12-12-14-12------------------------------------------
-------------------14-13------------------------------------------------------
------------------------------------------------------------------------------
-----------------------play-twice-during-intro-and-once-after-first-verse-----
------------------------------------------------------------------------------
 Lead guitar intro  - i didnt tab the other intro-  (above)                   

------------------------------------------------------------------------------
------------------------------------------------------------------------------
-99--99-----------------------------------------------------------------------
-99--99--99999999--x2---------------------------------------------------------
-77--77--99999999-------------------------------------------------------------
---------77777777-------------------------------------------------------------
 Th eres too much time ....wasted my time"  (above)                           

------------------------------------------------------------------------------
------------------------------------------------------------------------------
-9999----------------9999-----------------------------------------------------
-9999-9999-7777-9999-9999-9999-777777--9999----x2-----------------------------
-7777-9999-7777-9999-7777-9999-777777--9999-----------------------------------
------7777-5555-7777------7777-555555--7777-----------------------------------
 Chorus (above)                                                               

------------------------------------------------------------------------------
------------------------------------------------------------------------------
-99-99------------------------------------------------------------------------
-99-99-99999999--x2-----------------------------------------------------------
-77-77-99999999---------------------------------------------------------------
-------77777777---------------------------------------------------------------
   theres too much time......wastin my time                                   

------------------------------------------------------------------------------
------------------------------------------------------------------------------
-9999----------------9999-----------------------------------------------------
-9999-9999-7777-9999-9999-9999-777777-9999------------------------------------
-7777-9999-7777-9999-7777-9999-777777-9999------------------------------------
------7777-5555-7777------7777-555555-7777------------------------------------
   chorus(above)                                                              

------------------------------------------------------------------------------
-------------------(could-play-the-x's-with-775--but-you-gotta-hit-it-quickly-
-9999-------------------------------------------------------------------------
-9999-9999-7777-9999--7-7-xx-7-7-7-xx-7-7-7-xx-7-7-7--7-----------------------
-7777-9999-7777-9999--7-7-xx-7-7-7-xx-7-7-7-xx-7-7-7--7-----------------------
------7777-5555-7777--5-5-xx-5-5-5-xx-5-5-5-xx-5-5-5--5-----------------------
   chorus continued (above)                          (hard)                   

-12----12-19*******-17******--------------12----12-19******-19-17-------------
----12---------------------------------------12-------------------------------
------------------------------------------------------------------------------
-------------------------------77-79------------------------------------------
-------------------------------77-79------------------------------------------
-------------------------------55-57--------------------------------/-/-/-----
 solo                                                                         

------------------------------------------------------------------------------
------------------------------------------------------------------------------
------------------------------------------------------------------------------
---x5---------x5-------------------------------------x3--x3---x3--x3----------
-11----------9---121212-11-9/7--99-999-77-777-------7---9---11---12-----------
------12-x5-------------------------------------------------------------------
 solo continuted                                                              

------------------------------------------------------------------------------
------------------------------------------------------------------------------
-9-99-------------------------------------------------------------------------
-9-99--9-99-7-77------x5---777------------------------------------------------
-7-77--9-99-7-77-----------777------------------------------------------------
-------7-77-5-55-----------555------------------------------------------------
       theres too much time.......                                            

------------------------------------------------------------------------------
------------------------------------------------------------------------------
-9999----------------9999------------------9999-------------------------------
-9999-9999-7777-9999-9999-9999-777777-9999-9999-9999-7777-9999----------------
-7777-9999-7777-9999-7777-9999-777777-9999-7777-9999-7777-9999----------------
------7777-5555-7777------7777-555555-7777------7777-5555-7777----------------
 chorus  ending                                                               

-|----------------------------------|-----------------------------------------
-|----------------------------------|-----------------------------------------
-|xx-9------------------------------|-------9999----------------------9----9--
-|xx-9-xx-9-xx-7--------------------|-x2----9999-9999-77777777----9x-x9----9--
-|xx-7-xx-9-xx-7----12-12-1211-11/9-|-------7777-9999-77777777----9x-x7----7--
-|-----xx-7-xx-5--------------------|------------7777-55555555----7x-x--------
                                   ending
Suggest correction
What's this?
You can suggest a correction to this tab. Community and Mods will review your correction and vote to approve or reject it.
comments
We did not receive enough feedback on this tab! Please rate:
print report bad tab
1 2 3 4 5
guest
You may want to rate the tab now too:
select rating
Please do not post tabs as comments. Select "correction" instead!