Oops, an error
Loading. Please wait.

Yesterday Tab

version 2
version 2

Whole song

Interactive

by Mest
2,074 views 1 this week
no commentswrite comment
1 2 3 4 5
please rate
add to favorites
launch autoscroll
font size
0
reset
how to read this tab
guitar tuner
Autoscroll
slow
fast
+/-
esc
set tempo
stop
Help us to improve Ultimate-Guitar.com Take our survey!
×
Author
------------------------------------------------------------------------------
                             Yesterday - Mest
-------------------------------------------------------------------------------
Band: Mest
Song: Yesterday
CD: Destination Unknown
By: kbrez, jenkevb@prodigy.net
palm mute:  *

Best song on the CD

My first tab, a great song.  

e|-------------------------------------------------------------------|
B|-------------------------------------------------------------------|
G|5555---------------------------------------------------------------|
D|5555-5555-7777-----------------------------------------------------|
A|3333-5555-7777-----------------------------------------------------|
E|-----3333-5555-/////////pickslide----------------------------------|
  **** **** ****  

Verse pt. 2
e|-------------------------------------------------------------------|
B|-------------------------------------------------------------------|
G|5555---------------------------------------------------------------|
D|5555-5555-7777-5555-xxxx-------------------------------------------|
A|3333-5555-7777-5555-xxxx-------------------------------------------|
E|-----3333-5555-3333-xxxx-------------------------------------------|

Chorus Gt. 1 (x2)
e|-------------------------------------------------------------------|
B|-------------------------------------------------------------------|
G|5555-----------------------------------------55--------------------|
D|5555-5555-77-55-33---------------------------55--------------------|
A|3333-5555-77-55-33---------------------------33--------------------|
E|-----3333-55-33-11-------------------------------------------------|
                                         after 2nd time 
Chorus Gt. 2 (x2)
e|-------------------------------------------------------------------|
B|-------------------------------------------------------------------|
G|5555-77-88-7777-999977775555--------55-----------------------------|
D|xxxx-xx-xx-xxxx-xxxxxxxxxxxx--------55-----------------------------|
A|3333-55-66-5555-777755553333--------33-----------------------------|
E|-------------------------------------------------------------------|
                                    after 2nd time

2nd chorus gt. 1 (x2)
e|-------------------------------------------------------------------|
B|-------------------------------------------------------------------|
G|-------------------------------------------------------------------|
D|-same as above-----------------------------------------------------|
A|-------------------------------------------------------------------|
E|-------------------------------------------------------------------|

2nd chorus gt. 2 (x2)
e|-------------------------------------------------------------------|
B|-------------------------------------------------------------------|
G|5555------------------997755---------------------------------------|
D|5555-5555-7777-555-33-xxxxxx---------------------------------------|
A|3333-5555-7777-555-33-775533---------------------------------------|
E|-----3333-5555-333-11----------------------------------------------|

Interlude
e|-------------------------------------------------------------------|
B|-------------------------------------------------------------------|
G|-------------------------------------------------------------------|
D|7-5-33-3-33-3-33-3-33-3--7-5-33333333------------------------------|
A|7-5-33-3-33-3-33-3-33-3--7-5-33333333------------------------------|
E|5-3-11-1-11-1-11-1-11-1--5-3-11111111------------------------------|
      **   **   **   **

Bridge ("being on the road.......")
e|-------------------------------------------------------------------|
B|-------------------------------------------------------------------|
G|-------------------------------------------------------------------|
D|7777-5555-3333-----7777-5555-3333-7777-5555-3-3--------------------|
A|7777-5555-3333-x2--7777-5555-3333-7777-5555-3-3--------------------|
E|5555-3333-1111-----5555-3333-1111-5555-3333-1-1-pick slide---------|
  **** **** ****


===============================================================================
Chorus gt. 1(x2) Same as above

Chorus gt. 2(x2) Same as 2nd chorus above


Outro
e|-------------------------------------------0-----------------------|
B|-------------------------------------------0-----------------------|
G|-------------------------------------------0-----------------------|
D|7777-5555-33-3-33-3-33-3-33-3--------7--5--3-----------------------|
A|7777-5555-33-3-33-3-33-3-33-3--x2----7--5--3-----------------------|
E|5555-3333-11-1-11-1-11-1-11-1--------5--3--1-----------------------|
            **   **   **   **
Suggest correction
What's this?
You can suggest a correction to this tab. Community and Mods will review your correction and vote to approve or reject it.
comments
We did not receive enough feedback on this tab! Please rate:
print report bad tab
1 2 3 4 5
guest
You may want to rate the tab now too:
select rating
Please do not post tabs as comments. Select "correction" instead!