Oops, an error
Loading. Please wait.

Waiting For A Savior bass

version 1
version 1

Whole song

Interactive

255 views 1 this week
no commentswrite comment
1 2 3 4 5
3 more votes to show rating
add to favorites
×
Save as Personal and add changes to this tab that will be seen only by you. Learn more ›
×
You can save this tab as Personal to edit and correct it or add notes. All changes will be seen only by you. Learn more »
launch autoscroll
font size
0
reset
guitar tuner
edit
Autoscroll
slow
fast
+/-
esc
set tempo
stop
Author
No bass in the intro verse

chorus

"All of your life you have waited alone for a Savior..." 
|-----------------|-----------------|-----------------|----------------|
|-----------------|-----------------|-----------------|----------------|
|-3-3-3-3-3-3-3-3-|-3-3-3-3-3-3-3-3-|-----------------|----------------|
|-----------------|-----------------|-0-0-0-0-0-0-0-0-|-0-2-3-5-3-2-0--|


|-----------------|-----------------|-----------------|----------------|
|-----------------|-----------------|-----------------|----------------|
|-3-3-3-3-3-3-3-3-|-3-3-3-3-3-3-3-3-|-----------------|----------------|
|-----------------|-----------------|-0-0-0-0-0-0-0-0-|-0-2-3-5-3-2-0--|

"And all of those things that you needed so bad..." 
|-----------------|-----------------|-----------------|----------------|
|-----------------|-----------------|-----------------|----------------|
|-0-0-0-0-0-0-0-0-|-0-0-0-0-0-0-0-0-|-----------------|----------------|
|-----------------|-----------------|-0-0-0-0-0-0-0-0-|-0-2-3-5-3-2-0--|

O lord, Im coming home
|-----------------|-----------------|
|-----------------|-----------------|
|-3---------------|-5---------------|
|-----------------|-----------------|

bridge 

|-----------------|------------------|
|-----------------|------------------|
|-----------------|------------------|
|-0---------------|-(0)--------------|

|-----------------|------------------|
|-----------------|------------------|
|-----------------|------------------|
|-0---------------|-(0)--------------|

second verse

"I'm searching through the haze that's drifting through my mind ..."
|-----------------|------------------|------------------|-------------------|
|-----.-----------|-----.------------|-----.------------|-----.-------------|
|-----7-----5-----|-----7-----5------|-----7-----5------|-----7-----5-------|
|-0-0---0-0-----5-|-0-0---0-0------5-|-0-0---0-0------5-|-0-0---0-0-------5-|

"Stare in the looking glass and wonder who I'll find..." 
|-----------------|------------------|------------------|-------------------|
|-----.-----------|-----.------------|-----.------------|-----.-------------|
|-----7-----5-----|-----7-----5------|-----7-----5------|-----7-----5-------|
|-0-0---0-0-----5-|-0-0---0-0------5-|-0-0---0-0------5-|-0-0---0-0-------5-|

"No one would listen to a man upon the water..."
|-----------------|-----------------|-----------------|-----------------|
|-----------------|-----------------|-----------------|-----------------|
|-0-0-0-0-0-0-0-0-|-0-0-0-0-0-0-0-0-|-0-0-0-0-0-0-0-0-|-0-0-0-0-0-0-0-0-|
|-----------------|-----------------|-----------------|-----------------|

"Until they were old and their mountains of gold..." 
|-----------------|------------------|------------------|-------------------|
|-----.-----------|-----.------------|-----.------------|-----.-------------|
|-----7-----5-----|-----7-----5------|-----7-----5------|-----7-----5-------|
|-0-0---0-0-----5-|-0-0---0-0------5-|-0-0---0-0------5-|-0-0---0-0-------5-|

chorus  


|-----------------|-----------------|-----------------|----------------|
|-----------------|-----------------|-----------------|----------------|
|-3-3-3-3-3-3-3-3-|-3-3-3-3-3-3-3-3-|-----------------|----------------|
|-----------------|-----------------|-0-0-0-0-0-0-0-0-|-0-2-3-5-3-2-0--|


|-----------------|-----------------|-----------------|----------------|
|-----------------|-----------------|-----------------|----------------|
|-3-3-3-3-3-3-3-3-|-3-3-3-3-3-3-3-3-|-----------------|----------------|
|-----------------|-----------------|-0-0-0-0-0-0-0-0-|-0-2-3-5-3-2-0--|

|-----------------|-----------------|-----------------|----------------|
|-----------------|-----------------|-----------------|----------------|
|-0-0-0-0-0-0-0-0-|-0-0-0-0-0-0-0-0-|-----------------|----------------|
|-----------------|-----------------|-0-0-0-0-0-0-0-0-|-0-2-3-5-3-2-0--|

|-----------------|-----------------|
|-----------------|-----------------|
|-3---------------|-5---------------|
|-----------------|-----------------|

bridge 

|-----------------|------------------|
|-----------------|------------------|
|-----------------|------------------|
|-0---------------|-(0)--------------|

|-----------------|------------------|
|-----------------|------------------|
|-----------------|------------------|
|-0---------------|-(0)--------------|

solo

 1  +  2  + 3  + 4      1  + 2  + 3  + 4  
|---------------------|---------------------|
|---------------------|---------------------|
|---------------------|---------------------|
|-0-00-0-00-2-22-2-22-|-3-33-3-33-3-33-3-33-|

 1  +  2  + 3  + 4      1  + 2  + 3  + 4  
|---------------------|---------------------|
|---------------------|---------------------|
|---------------------|---------------------|
|-0-00-0-00-2-22-2-22-|-3-33-3-33-3-33-3-33-|

 1  +  2  + 3  + 4      1  + 2  + 3  + 4  
|---------------------|---------------------|
|---------------------|---------------------|
|---------------------|---------------------|
|-0-00-0-00-2-22-2-22-|-3-33-3-33-3-33-3-33-|

 1  +  2  + 3  + 4      1  + 2  + 3  + 4  
|---------------------|---------------------|
|---------------------|---------------------|
|---------------------|---------------------|
|-0-00-0-00-2-22-2-22-|-3-/--3--/-3-/-3--/--|

1  +  2  + 3  + 4      1  + 2  + 3  + 4  
|---------------------|---------------------|
|---------------------|---------------------|
|---------------------|---------------------|
|-0-00-0-00-2-22-2-22-|-3-33-3-33-3-33-3-33-|

 1  +  2  + 3  + 4      1  + 2  + 3  + 4  
|---------------------|---------------------|
|---------------------|---------------------|
|---------------------|---------------------|
|-0-00-0-00-2-22-2-22-|-3-33-3-33-3-33-3-33-|

 1  +  2  + 3  + 4      1  + 2  + 3  + 4  
|---------------------|---------------------|
|---------------------|---------------------|
|---------------------|---------------------|
|-0-00-0-00-2-22-2-22-|-3-33-3-33-3-33-3-33-|

 1  +  2  + 3  + 4      1  + 2  + 3  + 4  
|---------------------|---------------------|
|---------------------|---------------------|
|---------------------|---------------------|
|-0-00-0-00-2-22-2-22-|-3-/--3--/-3-/-3--/--|


bridge 

|-----------------|------------------|
|-----------------|------------------|
|-----------------|------------------|
|-0---------------|-(0)--------------|

|-----------------|------------------|
|-----------------|------------------|
|-----------------|------------------|
|-0---------------|-(0)--------------|


chorus,

outro chorus


|-----------------|-----------------|--------------|--------------|
|-----------------|-----------------|--------------|--------------|
|-----------------|-----------------|-3------------|-5------------|
|-0-0-0-0-0-0-0-0-|-0-0-0-0-0-0-0-0-|--------------|--------------|

|-----------------|-----------------|-5------------|-7------------|
|-----------------|-----------------|-5------------|-7------------|
|-----------------|-----------------|-3------------|-5------------|
|-0-0-0-0-0-0-0-0-|-0-0-0-0-0-0-0-0-|--------------|--------------|
                                      ^              ^
                                      these are single notes,but it sounds 
                                      better with chords

/ -slide out
.-staccato 




 

            
            
Suggest correction
Creating personal tab
Creating personal tab
You can edit any tab online and save it as your Personal.

You can edit, replace or remove any tab part or add personal notes – all changes will be seen only by you.

Personal tabs can be accessed anytime from any device, even offline.
Learn more »
Give kudos to tab author, rate the tab!
1 2 3 4 5
comments
print report bad tab
guest
You may want to rate the tab now too:
select rating
Wanna post a correction for this tab? Suggest correction