Oops, an error
Loading. Please wait.

2 X 4 Bass Tab

version 2
version 2

Whole song

49 views 1 this week
no commentswrite comment
1 2 3 4 5
3 more votes to show rating
add to favorites
launch autoscroll
font size
0
reset
guitar tuner
Autoscroll
slow
fast
+/-
esc
set tempo
stop
Help us to improve Ultimate-Guitar.com Take our survey!
×
[Riff 1]
|----------------------------------| x4
|----------------------------------|
|----------------------------------|
|-0-3/5-6-0-3/5-6-0-3/5-0-0-3/5-0--|

[Riff 2]
|---------------------------------| x4
|---------------------------------|
|---------------------------------|
|--0--0-3-0 5/6--0-5/6--0-6-0-5-3-|

[Riff 3]
|---------------------------------| x4
|---------------------------------|
|---------------------------------|
|--0--0-3--0-5--0--6\5--3--6\5--3-|

[Riff 2]
|---------------------------------| x2
|---------------------------------|
|---------------------------------|
|--0--0-3-0 5/6--0-5/6--0-6-0-5-3-|

[Riff 3]
|---------------------------------| x4
|---------------------------------|
|---------------------------------|
|--0--0-3--0-5--0--6\5--3--6\5--3-|

[Riff 4]
|------------------------| x4
|------------------------|
|------------------------|
|--0-3/5--6-----0-3/5--0-|

[Riff 1]
|----------------------------------| x6
|----------------------------------|
|----------------------------------|
|-0-3/5-6-0-3/5-6-0-3/5-0-0-3/5-0--|

[Riff 2]
|---------------------------------| x4
|---------------------------------|
|---------------------------------|
|--0--0-3-0 5/6--0-5/6--0-6-0-5-3-|

[Riff 3]
|---------------------------------| x4
|---------------------------------|
|---------------------------------|
|--0--0-3--0-5--0--6\5--3--6\5--3-|

[Riff 4]
|------------------------| x3
|------------------------|
|------------------------|
|--0-3/5--6-----0-3/5--0-|

[Riff 1]
|----------------------------------| x6
|----------------------------------|
|----------------------------------|
|-0-3/5-6-0-3/5-6-0-3/5-0-0-3/5-0--|

Riff 5:
|--------------| x4 |----------------------------------------|
|--------------|    |----------------------------------------|
|--------------|    |----------------------------------------|
|--0--3--5--1--|    |--1-1-1-1-1-1-1-1-1-1-1-1-1-1-1--1--1---|

[Riff 4]
|------------------------| x1
|------------------------|
|------------------------|
|--0-3/5--6-----0-3/5--0-|

[Riff 6]
|-----------------------------------| x8
|-----------------------------------|
|-----------------------------------|
|--0--3-5-3----0--3-5-3--0--3-5-3---|

[Riff 2]
|---------------------------------| x2
|---------------------------------|
|---------------------------------|
|--0--0-3-0 5/6--0-5/6--0-6-0-5-3-|

[Riff 4]
|------------------------| x3
|------------------------|
|------------------------|
|--0-3/5--6-----0-3/5--0-|

[Riff 1]
|----------------------------------| x6
|----------------------------------|
|----------------------------------|
|-0-3/5-6-0-3/5-6-0-3/5-0-0-3/5-0--|

[Riff 6]
|-----------------------------------| x1
|-----------------------------------|
|-----------------------------------|
|--0--3-5-3----0--3-5-3--0--3-5-3---|
Suggest correction
Give kudos to tab author, rate the tab!
1 2 3 4 5
comments
print report bad tab
guest
You may want to rate the tab now too:
select rating
Wanna post a correction for this tab? Suggest correction