Oops, an error
Loading. Please wait.

All Nightmare Long Power Tab

version 1
version 1
38,477 views 6 this week
4 commentsread comments
1 2 3 4 5
excellent!
x 14
add to favorites
guitar tuner
Autoscroll
slow
fast
+/-
esc
set tempo
stop
Help us to improve Ultimate-Guitar.com Take our survey!
×
Author
Filesize
Instruments
60 Kb
rhythm guitar #1, rhythm guitar #2, lead guitar
"All Nightmare Long"
demo version
Play now

or get full version for Free

Get full version now!
To learn and play this song
in Tab Pro, start free trial
Start free trial

or get $10 off Welcome Bonus

Get welcome bonus
Get access to Tab Pro version of “All Nightmare Long”!
Tab Pro is a premium guitar tab service, available on PC, Mac, iOS and Android
START FREE TRIAL
Your download will start in 7 seconds
×
Like this song? We have more like this. Follow us on Facebook for more great tabs and guitar-related content
To download “All Nightmare Long” Power Tab tab click button below
Please note that you must have Power Tab software installed on your
computer in order to view this file.
comments
report bad tab
4 comments total. Showing first comments.
+1 reply
cheez1492 685 wrote on October 4 2008, 10:37 pm

awesome tab dude.
sounds just right

0 reply
AleX002 30 wrote on December 19 2008, 03:12 pm

Very good job dude.
In the book it says
---------------------------------------
---------------------------------------
-7-7---10-10--9-9-7-7------------------
-x-x---x-- x--x-x-x-x---5-5--5-5--2-2--
-5-5---8---8--7-7-5-5---3-3--2-2--0-0--
-0-0---0---0--0-0-0-0------------------
for the verse, but then I like the sound of the way you did it.

And on the awesome riff, the book says:

--------------------------------------
--------------------------------------
--------------------------------------
------3-------------------------------
-5-5--3-------------------------------
-0-0--3---0-0-0-0-0-0-----------------

--------------------------------------
--------------------------------------
--------------------------------------
------3-------------------------------
-0-0--3-------------------------------
-0-0--3---0-0-0-0-0-0-----------------

but thats for those people who want it how metallica plays it, but I like the way you tabbed it, its easier and sounds better

0 reply
AleX002 30 wrote on December 19 2008, 03:13 pm

ehhh for some reason the "vs" i put between the two riffs didn't show up, but the top one is the book, the bottom one is the way he tabbed it

guest
You may want to rate the tab now too:
select rating
Please do not post tabs as comments. Select "correction" instead!