Oops, an error
Loading. Please wait.

And Justice For All Bass Tab

version 4
version 4
468 views 3 this week
no commentswrite comment
1 2 3 4 5
please rate
add to favorites
launch autoscroll
font size
0
reset
guitar tuner
Tab Pro tools
  • play this tab
  • loop segment
  • change instrument
  • show fretboard
  • metronome
×
Best way to learn
"And Justice For All"
Autoscroll
slow
fast
+/-
esc
set tempo
stop
Contributor
Difficulty
advanced
================================================================================
                               M E T A L L I C A

                                       -

                 . . . A N D   J U S T I C E   F O R   A L L
================================================================================


                             ...AND JUSTICE FOR ALL
                        (c) Elektra/Vertigo Records (1988)
                            http://www.metallica.com/


                                 Standard Tuning
                                    B E A D G

                                  Tempo = 89 BPM
                            Time Signature = 3/4 (Varies)



                          -----------------------------
                                 Transcribed by

                                 PADDY MCMULLAN
                           pmtabs (@t) gmail [dot] com

                          Version 1.0 [1st October 2012]
                                  
                                   Date Tabbed
                                 1st October 2012
                             -----------------------

                             Tablature Symbols Used:


 (/)       -  Legato Slide (Blank space indicates length of slide)
 \         -  Slide Down to/Down From
 /         -  Slide Up to/Up From
 ( )       -  Ghost Note/Tied Note/Implied Note
 |--  --|  -  Rest and sustain rest for duration of blank space
 |_3_|     -  Triplet Notes
 ...       -  Palm Mute
 5b6       -  Bend
 x         -  Dead Note/Muted Note
 5h7       -  Hammer-On
 7p5       -  Pull-Off
 *         -  Staccato Notes (Bring the indicated note(s) to an abrupt end)
 S         -  Slap
 |__[1,2]  -  Alternate Endings/Beginnings



================================================================================
Intro:                                                    [ Time 00:00 - 00:56 ]
================================================================================


[ Tempo = 46 BPM ]


Rest for 7 bars


| |---------------------|----------------------|----------------|
|3|--     --*-*---------|----------------------|--            --|
|/|--     --2-2-2---2---|--1-1-1-1-1---1-------|--            --|
|4|--     --------0---0-|------------0---------|--            --|
| |---------------------|----------------------|----------------|

|---------------------|-----------------------|
|--     ------*-------|-----------------------|
|--     --2-2-2---2---|--1-1-1-1-1---1----1/ -|
|--     --------0---0-|------------0----------|
|---------------------|-----------------------|

|------------------------------------------|
|------------------------------------------|
|--7--7--7----7---------5--5--5-5----5-----|
|----------------0--0-0-----------2-----1--|
|------------------------------------------|

|---------------------------------------|------------------------------||
|---------------------------------------|------------------------------||
|--3--3--3----3-----2--2--2-2/5---2--2--|--1--1--1-1----1--1--1---- /--||
|----------------0--------------0-------|------------0-----------------||
|---------------------------------------|------------------------------||



================================================================================
Part 1:                                                   [ Time 00:56 - 01:22 ]
================================================================================


[ Tempo = 89 BPM ]


             |__3__|     |__3__|          |_________7_________|
| |-------------------------------|----------------------------------|
|4|-----   --------       --------|-----       --------------      --|
|/|--*--   --*--*--       --------|--*--       -----------*--      --|
|4|--6--   --6--5--       --6--5--|--4--       --6--5--4--3--      --|
| |-------------------------------|----------------------------------|
                                          [1  2  3  4  5  6  7 ]

|-----------------------------------------------|
|-------------------------------------------- --|
|--1--0--------0--------------------------*-- --|
|--------3--1-----3--1--0--3--1--0-----1--0-- --|
|-----------------------------------3-----------|
   ........................................

|------------------------------------|-------------------|-------------------|
|--3---2---0-------2-0------0--------|-------------------|-------------------|
|--------------3-------3-2-(0)-------|-------------------|-------------------|
|--------------------------(3)-3-2-1-|--0----------------|--(0)--------------|
|------------------------------------|-------------------|-------------------|

| |-------------| |--------------| |-------------| |-------------------------||
|3|-------------|4|--------------|3|-------------|4|-------------------------||
|/|-------------|/|--------------|/|-------------|/|-------------------------||
|4|--(0)--------|4|--(0)---------|4|--(0)--------|4|--(0)------6-6-5--6-6-5--||
| |-------------| |--------------| |-------------| |-------------------------||



================================================================================
Part 2:                                                   [ Time 01:22 - 02:01 ]
================================================================================


| |-------------------------| |--------------------------------| |
|3|-------------------------|4|--------------------------------|*|
|/|-----5h7--7-5------------|/|-----5h7--7-5-------------------| | x 2
|4|--0------------7--6-6-5--|4|--0------------7--6-6-5--6-6-5--|*|
| |-------------------------| |--------------------------------| |
    ...                         ...

| |-------------------------------|
|3|-------------------------------|
|/|-----7------7--7---------------|
|4|--0--0---0--0--0--0-0-2--3--0--|
| |-------------------------------|

| |---------------------------------------------|
|4|---------------------------------------------|
|/|---------------------------------------------|
|4|--0--5p0--0--5---5--0-2-2--3 /5--0--8--7 \5--|
| |---------------------------------------------|

| |----------------------------| |---------------------------------------------|
|3|----------------------------|4|---------------------------------------------|
|/|---7----7---7---------------|/|---------------------------------------------|
|4|-0- --0- ---0--0-0-2--3--0--|4|--0--5p0--0--5--5--0-0-8--8--7--0-0-1--1--0--|
| |----------------------------| |---------------------------------------------|

| |-------------------------| |--------------------------------|
|3|-------------------------|4|--------------------------------|
|/|-----5h7--7-5------------|/|-----5h7--7-5-------------------|
|4|--0------------7--6-6-5--|4|--0------------7--6-6-5--6-6-5--|
| |-------------------------| |--------------------------------|
    ...                         ...

| |-------------------------| |--------------------------------||
|3|-------------------------|4|--------------------------------||
|/|-----5h7--7-5------------|/|-----5h7--7-5-------------------||
|4|--0------------7--6-6-5--|4|--0------------7--6-6-5--3-3-2--||
| |-------------------------| |--------------------------------||
    ...                         ...



================================================================================
Part 3:                                                   [ Time 02:01 - 02:31 ]
================================================================================


| |----------------------| |-----------------------------|
|3|----------------------|4|-----------------------------|
|/|----*----*------------|/|----*----*-------------------|
|4|--2-0--0-0--0--0-0-1--|4|--1-0--0-0--0--6-6-5--6-6-5--|
| |----------------------| |-----------------------------|
          .                        .

| |----------------------| |-----------------------------|
|3|----------------------|4|-----------------------------|
|/|----*----*------------|/|----*----*-------------------|
|4|--5-0--0-0--0--0-0-1--|4|--1-0--0-0--0--6-6-5--5-6-6--|
| |----------------------| |-----------------------------|
          .                        .


[ Vocals Enter ]


| |-------------------------| |------------------------------|
|3|----------*--------------|4|----------*-------------------|
|/|----7-----7--7------(1)--|/|----7-----7--7----------------|
|4|--0- -0-0-------0-0--1---|4|--0-0-0-0-0--0--6-6-5--6-6-5--|
| |-------------------------| |------------------------------|

| |-----------------------| |-------------------------------|
|3|----------*------------|4|----------*--------------------|
|/|----7-----7--7---------|/|----7-----7---7----------------|
|4|--0- -0-0-------0-0-1--|4|--0-0-0-0-0-0-0--6-6-5--5-6-6--|
| |-----------------------| |-------------------------------|

| |-----------------------| |------------------------------|
|3|----------*------------|4|----------*-------------------|
|/|----7-----7--7---------|/|----7-----7--7----------------|
|4|--0- -0-0-------0-0-1--|4|--0-0-0-0-0--0--6-6-5--6-6-5--|
| |-----------------------| |------------------------------|

| |-----------------------| |------------------------------|
|3|----------*------------|4|----------*-------------------|
|/|----7- ---7--7---------|/|----7-----7--7----------------|
|4|--0- -0-0-------0-0-1--|4|--0-0-0-0-0--0--6-6-5--6-6-5--|
| |-----------------------| |------------------------------|

| |------------------||
|2|------------------||
|/|----7-7-----5-5---||
|4|--0-----0-0-----3-||
| |------------------||



Halls of justice painted green
Money talking
Power wolves beset your door
Hear them stalking

Soon you'll please their appetite
They devour
Hammer of justice crushes you
Overpower



================================================================================
Part 4:                                                   [ Time 02:31 - 02:57 ]
================================================================================


| |---------------------------------------------|
|4|---------------------------------------------|
|/|---------------------------------------------|
|4|--2----2--2--2--2--2--2--3--2--0--2h3---2h3--|
| |---------------------------------------------|
          ................

|---------------------------------------------|
|---------------------------------------------|
|---------------------------------------------|
|--2----2--2--2--2--2--2--3--2--0--2h3---2h3--|
|---------------------------------------------|
        ................

|--------------------------------------------|
|--------------------------------------------|
|--------------------------------------------|
|--2----2--2--2--2--2--2--3--2--0--2h3---5 \-|
|--------------------------------------------|
        ................

                                      |_3_|
|-------------------------------------------|
|------------------------4h5--0-------------|
|-------------------------------------0-2-3-|
|--2----2--2--2--2--2p0----------4h5--------|
|--------------------(0)--------------------|

|---------------------------------------------|
|---------------------------------------------|
|---------------------------------------------|
|--2----2--2--2--2--2--2--3--2--0--2h3---2h3--|
|---------------------------------------------|
        ................

|---------------------------------------------|
|---------------------------------------------|
|---------------------------------------------|
|--2----2--2--2--2--2--2--3--2--0--2h3---2h3--|
|---------------------------------------------|
        ................
                                                                            S
|--------------------------------------------|---------------------------------|
|--------------------------------------------|-------------------------   -----|
|--------------------------------------------|----------------------*--   --3--|
|--2----2--2--2--2--2--2--3--2--0--2h3---5 \-|--2----2--2--2--2--2--3--   --3--|
|--------------------------------------------|------------------------------1--|
        ................                             .............

     S
| |---------------| |---------------------------------||
|2|-----   -------|4|---------------------0- ---------||
|/|--3--   --2h3--|/|---------------------------------||
|4|--3--   -------|4|--0--0-0-0-0-0-0-1-0---0 h1--1 / ||
| |--1------------| |---------------------------------||



The ultimate in vanity
Exploiting their supremacy
I can't believe the things you say
I can't believe, I can't believe the price
You pay

Nothing can save you



================================================================================
Part 5:                                                   [ Time 02:57 - 03:17 ]
================================================================================


| |------------------------------| |----------------|
|4|------------------------------|2|----------------|
|/|------------------------------|/|----------------|
|4|--5--5-5-5-3-5 / 7---7-7-5-7--|4|--8--7-7-5-3-1--|
| |------------------------------| |----------------|

| |---------------------------------|-------------------------------|
|4|---------------------0- ---------|-------------------------------|
|/|---------------------------------|-------------------------------|
|4|--0--0-0-0-0-0-0-1-0---0 h1--1 / |--5---5-5-3-5-5-7-5-7--8-7 \1--|
| |---------------------------------|-------------------------------|

|---------------------------------|--------------------------------|
|---------------------0- ---------|--------------------------------|
|---------------------------------|--------------------------------|
|--0--0-0-0-0-0-0-1-0---0 h1--1 / |--5---5-5-3-5 / 7--7-7-7-7-7-5 \|
|---------------------------------|--------------------------------|

|---------------------------------|---------------------------||
|---------------------------------|---------------------------||
|-------------5--3--(3)-3-3-------|---------------------------||
|--3--3-3-5-3---------------0-5-3-|--1------1 / 6-6-5--6-6-5--||
|---------------------------------|---------------------------||



Justice is lost
Justice is raped
Justice is gone

Pulling your strings
Justice is done

Seeking no truth
Winning is all
Find it so grim, so true, so real



================================================================================
Part 6:                                                   [ Time 03:17 - 03:27 ]
================================================================================


| |-------------------------| |--------------------------------|
|3|-------------------------|4|--------------------------------|
|/|-----5h7--7-5------------|/|-----5h7--7-5-------------------|
|4|--0------------7--6-6-5--|4|--0------------7--6-6-5--6-6-5--|
| |-------------------------| |--------------------------------|
    ...                         ...

| |-------------------------| |--------------------------------||
|3|-------------------------|4|--------------------------------||
|/|-----5h7--7-5------------|/|-----5h7--7-5-------------------||
|4|--0------------7--6-6-5--|4|--0------------7--6-6-5--3-3-2--||
| |-------------------------| |--------------------------------||
    ...                         ...



================================================================================
Part 7:  Repeat Part 3                                    [ Time 03:27 - 03:57 ]
================================================================================


Apathy their stepping stone
So unfeeling
Hidden deep animosity
So deceiving

Through your eyes their light burns
Hoping to find
Inquisition sinking you
With prying minds



================================================================================
Part 8: Repeat Part 4                                     [ Time 03:57 - 04:23 ]
================================================================================


The ultimate in vanity
Exploiting their supremacy
I can't believe the things you say
I can't believe, I can't believe the price
You pay

Nothing can save you



================================================================================
Part 9: Repeat Part 5                                     [ Time 04:23 - 04:44 ]
================================================================================


Justice is lost
Justice is raped
Justice is gone

Pulling your strings
Justice is done

Seeking no truth
Winning is all
Find it so grim, so true, so real



================================================================================
Part 10:                                                  [ Time 04:44 - 05:05 ]
================================================================================


| |-------------------------| |--------------------------------|
|3|-------------------------|4|--------------------------------|
|/|-----5h7--7-5------------|/|-----5h7--7-5-------------------|
|4|--0------------7--6-6-5--|4|--0------------7--6-6-5--6-6-5--|
| |-------------------------| |--------------------------------|
    ...                         ...

| |-------------------------| |------------------||
|3|-------------------------|2|------------------||
|/|-----5h7--7-5------------|/|-----5h7--7-5-----||
|4|--0------------7--6-6-5--|4|--0------------7--||
| |-------------------------| |------------------||
    ...                         ...

             |__3__|     |__3__|          |_________7_________|
| |-------------------------------|----------------------------------|
|4|-----   --------       --------|-----       --------------      --|
|/|--*--   --*--*--       --------|--*--       -----------*--      --|
|4|--6--   --6--5--       --6--5--|--4--       --6--5--4--3--      --|
| |-------------------------------|----------------------------------|
                                          [1  2  3  4  5  6  7 ]

|-----------------------------------------------|
|-----------------------------------0-------- --|
|--1--0--------0--------------------------*-- --|
|--------3--1-----3--1--0--3--1--0-----1--0-- --|
|-----------------------------------------------|
   ...............................     ....

|------------------------------------|
|--3---2---0-------2-0------0--------|
|--------------3-------3-2-(0)-------|
|--------------------------(3)-3-2-1-|
|------------------------------------|

|------------------------------------------------||
|------------------------------------------------||
|------------------------------------------------||
|--0-----------12---12p11 \10\9\8\7\6\5\4\3 \2---||
|------------------------------------------------||



================================================================================
Guitar Solo Backing:                                      [ Time 05:05 - 05:55 ]
================================================================================


||--------------------------------|--------------------------------|
||--------------------------------|--------------------------------|
||--------------------------------|--------------------------------|
||--0--0-0-0-0-0-0-1-0-0-0 h1--1--|--0--0-0-0-0-0-0-1-0-0-0 h1--1--|
||--------------------------------|--------------------------------|

|--------------------------------|
|--------------------------------|
|--------------------------------|
|--0--0-0-0-0-0-0-1-0-0-0 h1--3--|
|--------------------------------|
        .........

                  |_3_|  |_3_|  |_3_|
|-----------------0h5h7--------------------| |
|------------------------0h5h7-------------|*|
|-------------------------------0h5h7-2 h3-| | x 2
|--0--0-0-0-0-0-0--------------------------|*|
|------------------------------------------| |

    |_3_|  |_3_|  |_3_|
||--0h5h7-----------------------------------||
||---------0h5h7----------------------------||
||----------------0h5h7-2 h3--3-3-2--3-3-2--||
||------------------------------------------||
||------------------------------------------||



| |----------------------|-----------------------|----------------------|
|3|----------------------|-----------------------|----------------------|
|/|----*----*------------|----*----*-------------|----*----*------------|
|4|--0-2--0-2--2--0-2-3--|--0-2--0-2--2p0-0-0-3--|--0-2--0-2--2--0-2-3--|
| |----------------------|-----------------------|----------------------|


| |------------------------------| |
|4|------------------------------|*|
|/|----*----*--------------------| | x 2
|4|--0-2--0-2--2 / 8-8-7--8-8-7--|*|
| |------------------------------| |



||----------------------------------|
||----------------------------------|
||----7-7-----5-5-----7-7-----5-5---|
||--0-----0-0-----3-0-----0-0-----3-|
||----------------------------------|

|----------------------------------| |------------||
|----------------------------------|2|-----     --||
|----5-5-----3-3-----3-3-----2-2---|/|--*--     --||
|--0-----0-0-----1-0-----0-0-----3-|4|--0--     --||
|----------------------------------| |------------||



================================================================================
Part 11:                                                  [ Time 05:55 - 06:22 ]
================================================================================


| |-----------------------| |------------------------------|
|3|----------*------------|4|----------*-------------------|
|/|----7-----7--7---------|/|----7-----7--7----------------|
|4|--0- -0-0-------0-0-1--|4|--0-0-0-0- --0--6-6-5--6-6-5--|
| |-----------------------| |------------------------------|

| |-----------------------| |-----------------------------------------------|
|3|----------*------------|4|-----------------------------------------------|
|/|----7-7---7--7---------|/|-----7--------7-----7--------------------------|
|4|--0--- -0-------0-0-1--|4|--0--0--0--0--0--0--0----6--6--5---5--5--5h6---|
| |-----------------------| |-----------------------------------------------|

| |-----------------------| |-------------------------------|
|3|----------*------------|4|-------------------------------|
|/|----7-----7--7---------|/|----7-----7---7----------------|
|4|--0- -0-0-------0-0-1--|4|--0-0-0-0-0-0-0--6-6-5--6-6-5--|
| |-----------------------| |-------------------------------|

| |-----------------------|
|3|----------*------------|
|/|----7-7---7--7---------|
|4|--0--- -0-------0-0-1--|
| |-----------------------|

| |------------------------------|------------------------------|
|4|----------*-------------------|------------------------------|
|/|----7-----7--7----------------|------------------------------|
|4|--0-0-0-0- --0--6-6-5--6-6-5--|--5-5-3--5-5-3--3-3-2--3-3-2--|
| |------------------------------|------------------------------|

| |----------------------------||
|7|----------------------------||
|/|------4---------------------||
|8|--2-2-2--2-2-2--1-1-1-1-1-0-||
| |----------------------------||



During the last 2 bars the tempo gradually decreases to around 46 BPM,
then increases slightly to 50 BPM during the first bar of the next part.



================================================================================
Interlude:                                                [ Time 06:22 - 07:25 ]
================================================================================


| |-------------------------|-------------------------|
|3|-------------------------|-------------------------|
|/|--7---7--7---5-5-5-0-5-0-|--3-3-3--3---2-2-2---2-0-|
|4|-- -0------0-------------|-----------3-------0-----|
| |-------------------------|-------------------------|

|------------3------------|--------------------------|-------------------------|
|-------------------------|--------------------------|-------------------------|
|--1-1-1-1-1- -1---1-1-4 /|--7-7-7----0-5-5-5-0-5-5 \|--3-3-3--3---2-2-2---2---|
|-------------------------|---------0----------------|-----------3-------0- -0-|
|-------------------------|--------------------------|-------------------------|

|-------------------------|--------------------------|-------------------------|
|-------------------------|--------------------------|-------------------------|
|--1-1-1---1---1---1-1-4 /|--7---7--7---5-5-5---5- \ |--3-3-3--3---2-2-2---2-0-|
|--------0- -0- ----------|----0------0-------0---0--|-----------3-------0-----|
|-------------------------|--------------------------|-------------------------|

|-------------------------|----------------------------|
|-------------------------|----------------------------|
|--1-1-1-1-1- -1---1-1-4 /|--7-----7-*----5-----5-*----|
|------------0------------|------4---4--0-----2---0--0-|
|-------------------------|----------------------------|

|---------------------------|------------------------------|
|---------------------------|------------------------------|
|--3---3---3---2---2 /5---0-|--1---1--1-0--0-1---1-1-------|
|--------0---0----------7---|-------------------------0--0-|
|---------------------------|------------------------------|

|------------------------------|--------------------------------|
|------------------------------|--------------------------------|
|--7-----7---7---5-----5---5---|--3--3-3-3---3---2------2---2---|
|----4-4---4---0---2-2---2---0-|-----------0---0---0-0----0---0-|
|------------------------------|--------------------------------|
                                     ...           ...

|----------------------------------------|
|----------------------------------------|
|--1---1-1-1-----1-----1--1----1----1----|
|-------------0-----0-------0----0----0--|
|----------------------------------------|
             ...   ...     ...  ...

|------------------------------------------|
|------------------------------*--*--------|
|--7------7------7------5------5--5--5-----|
|-----4-4----4-4----0-0----2-2----------0--|
|------------------------------------------|

|-------------------------------------|
|-------------------------*--*--------|
|--3-----3--3--3---2--2-1-2--2--2--0--|
|----0-0----0----0--------------------|
|-------------------------------------|
           ...

| |--------------------------------------------------------||
|9|---------*--*--*-  --------*--*--*-  --------*--*--*-  -||
|/|--1--1-1-1--1--1-  -1--1-1-1--1--1-  -1--1-1-1--1--1-  -||
|8|-----------------  ----------------  ----------------  -||
| |--------------------------------------------------------||



================================================================================
Part 12:                                                  [ Time 07:25 - 07:45 ]
================================================================================


[ Tempo = 89 BPM ]


| |-------------------|-------------------| |---------------|
|4|-------------------|-------------------|3|---------------|
|/|--7----------------|--(7)--------------|/|--(7)----------|
|4|--0----------------|--(0)--------------|4|--(0)----------|
| |-------------------|-------------------| |---------------|

| |-------------------------||
|4|-------------------------||
|/|--(7)--------------------||
|4|--(0)------6-6-5--6-6-5--||
| |-------------------------||

| |-------------------------| |--------------------------------|
|3|-------------------------|4|--------------------------------|
|/|-----5h7--7-5------------|/|-----5h7--7-5-------------------|
|4|--0------------7--6-6-5--|4|--0------------7--6-6-5--6-6-5--|
| |-------------------------| |--------------------------------|
    ...                         ...

| |-------------------------| |--------------------------------||
|3|-------------------------|4|--------------------------------||
|/|-----5h7--7-5------------|/|-----5h7--7-5-------------------||
|4|--0------------7--6-6-5--|4|--0------------7--6-6-5--3-3-2--||
| |-------------------------| |--------------------------------||
    ...                         ...



================================================================================
Part 13:                                                  [ Time 07:45 - 08:08 ]
================================================================================


| |------------------------| |-------------------------------|
|3|-----------*------------|4|----------*--------------------|
|/|-----------7--7---------|/|----7-----7---7----------------|
|4|--3b5-0--0-0--0--0-0-1--|4|--0- -0-0-0-0-0--6-6-5--6-6-5--|
| |------------------------| |-------------------------------|

| |-----------------------| |-------------------------------|
|3|----------*------------|4|-------------------------------|
|/|----7-7---7--7---------|/|----7-7---7---7----------------|
|4|--0-0- -0-------0-0-1--|4|--0-0-0-0-0-0-0--6-6-5--5-6-6--|
| |-----------------------| |-------------------------------|

| |-----------------------|
|3|----------*------------|
|/|----7-7-5-7--7---------|
|4|--0-0- -0-------0-0-1--|
| |-----------------------|

| |-------------------------------| |-------------------------|
|4|-------------------------------|3|----------*--------------|
|/|----7---5-7-5-7----------------|/|----7-7-5-7--7------(1)--|
|4|--0-0-0-0-0- -0--6-6-5--6-6-5--|4|--0-0- -0-0-----0-0--1---|
| |-------------------------------| |-------------------------|

| |-------------------------------|----------------------------------||
|4|-------------------------------|----------------------------------||
|/|----7-7-5-7-5-7----------------|----7-7-----5-5-----7-7-----5-5---||
|4|--0-0-0-0-0-0-0--6-6-5--6-6-5--|--0-----0-0-----3-0-----0-0-----3-||
| |-------------------------------|----------------------------------||



Lady justice has been raped
Truth assassin
Rolls of red tape seal your lips
Now you're done in

Their money tips her scales again
Make your deal
Just what is truth? I cannot tell
Cannot feel



================================================================================
Part 14: Repeat Part 4 with the following variations      [ Time 08:08 - 08:34 ]
================================================================================


Replace bar 4 with the following:


                            |_3_|
| |------------------0-- -----------|
|4|---------------------0-----------|
|/|------------------------0--0h2h3-|
|4|--2--2-2-2-2-2-2-----------------|
| |---------------------------------|
                  .



Replace bar 9 with the following:


     S
| |------------------|
|2|----  ------------|
|/|--3-  -0 /3-3-3-3-|
|4|--3-  ------------|
| |--1---------------|



The ultimate in vanity
Exploiting their supremacy
I can't believe the things you say
I can't believe, I can't believe the price
We pay

Nothing can save us



================================================================================
Part 15: Repeat Part 5                                    [ Time 08:34 - 08:51 ]
================================================================================


Justice is lost
Justice is raped
Justice is gone

Pulling your strings
Justice is done

Seeking no truth
Winning is all
Find it so grim, so true, so real



================================================================================
Outro:                                                    [ Time 08:51 - 09:46 ]
================================================================================


| |-----------------------------------|
|3|-----------------------------------|
|/|-----------------------------------|
|4|--0--0---0--0--0-0--0--0--2--3--0--|
| |-----------------------------------|

| |---------------------------------------------------|
|4|---------------------------------------------------|
|/|---------------------------------------------------|
|4|--5--5---5--5--5-5--5--0-2-3- /5--5-5--8--7--5--5--|
| |---------------------------------------------------|

| |-------------------------------------|
|3|-------------------------------------|
|/|-----7------7--7-7-7-----------------|
|4|--0--0---0--0--0- -0--0--2--3--0--0--|
| |-------------------------------------|

| |-------------------------------------------------------|
|4|-------------------------------------------------------|
|/|-------------------------------------------------------|
|4|--5--5-5--5--5--5--5--5--0--2--3- /5--0-0-7h8--8--7----|
| |-------------------------------------------------------|


| |-------------------------------------| |-------------------------------|
|3|-------------------------------------|4|-------------------------------|
|/|-----7---7--7--7-7-7-7---------------|/|-------------------------------|
|4|--0--0---0--0--0-0-   -0--0--0--0----|4|--5--5-5-5-3-5 /7--7-7-7-5/7-8\|
| |-------------------------------------| |-------------------------------|

| |-------------------------------| |---------------------------|
|3|-------------------------------|4|---------------------------|
|/|-------------5--3--3-3-3-5-3-0-|/|---------------------------|
|4|--3--3-3-5-3-------------------|4|--1------- / 6-6-5--6-6-5--|
| |-------------------------------| |---------------------------|


| |-------------------------------------|
|3|-------------------------------------|
|/|-----7------7----7-7-7---------------|
|4|--0--0---0--0--0---0- -0--0--3--0----|
| |-------------------------------------|


| |------------------------------------------------------|
|4|------------------------------------------------------|
|/|------------------------------------------------------|
|4|--5----5--5-5-5--5--5-5--0--2--3--5--0--0-8--7--5--0--|
| |------------------------------------------------------|


| |--------------------------| |-----------------------------------------------|
|3|--------------------------|4|-----------------------------------------------|
|/|--7---7---7---7-----------|/|-----------------------------------------------|
|4|----0---0-------0-2-3-0---|4|--0--5p0--0--5----5--0-0--2--3--5--0-8--7--5---|
| |--------------------------| |-----------------------------------------------|

| |-----------------------------|
|3|-----------------------------|
|/|------7----7-------7-7-------|
|4|--0------0---0-0-0-----0-0-0-|
| |-----------------------------|

|------------------------------------------------|
|------------------------------------------------|
|----------12-----------12--------12-------------|
|--10--10--10--10-10-10-  -10--10-  -10--12--10 \|
|------------------------------------------------|


|---------------------------------|--------------------------|
|---------------------------------|--------------------------|
|-------9--------9-------9--------|----------------------*---|
|--7----7--7--7--7--7--7---7--9  \|--5---5-5-5-5-5-0-3-3-2---|
|---------------------------------|--------------------------|

|-------------------------|
|-------------------------|
|-----7-----7-7-7-7-7-----|
|--0----0-0-----------0-0-|
|-------------------------|

|------------------------------------------|--------------------------|
|------------------------------------------|--------------------------|
|--------12----------12-------12-----------|----------------------*---|
|--10-10-10-10-10-10-  -10-10-  -10-12-10 \|--7---7-7-7-7-7-0-6-6-6---|
|------------------------------------------|--------------------------|

|--------------------------|------------------||
|--------------------------|--       ---------||
|----------------------*---|--       ------*--||
|--5---5-5-5-5-5-0-3-3-2---|--       --3-2-0--||
|--------------------------|------------------||



Seeking no truth
Winning is all
Find it so grim, so true, so real



================================================================================
End
================================================================================

Tab summary:        Intro
                    Part 1
                    Part 2
                    Part 3
                    Part 4
                    Part 5
                    Part 6
                    Part 7
                    Part 8
                    Part 9
                    Part 10
                    Part 11
                    Guitar Solo Backing
                    Part 12
                    Interlude
                    Part 13
                    Part 14
                    Part 15
                    Outro

                    END
comments
We did not receive enough feedback on this tab! Please rate:
print report bad tab
1 2 3 4 5
I want to post or [tab]
guest
You may want to rate the tab now too:
select rating
Please do not post tabs as comments. Select "correction" instead!