Oops, an error
Loading. Please wait.

Anesthesia Pulling Teeth Tab

version 1
version 1
14,964 views 69 this week
2 commentsread comments
1 2 3 4 5
accurate
x 13
add to favorites
launch autoscroll
font size
0
reset
how to read this tab
guitar tuner
Autoscroll
slow
fast
+/-
esc
set tempo
stop
Help us to improve Ultimate-Guitar.com Take our survey!
×
Author
Difficulty
intermediate
I've not got the whole song tabbed unfortunately and I'm not quite sure I've got this
arranged well enough but this is sorta close to what it sounds like on the bass. This guy
here>> http://www.youtube.com/watch?v=dsYM__6J0y8 played this on the guitar and it 
inspired me to tab this out..

So here goes! My first tab! xD



e---------------------------------------------------------|
B---------------------------------------------------------|
G---------------------------------------------------------|
D----------7--------7----------7--------7-----------7-----|
A-------8--------8----------8---------8----------8--------|
E--/10--------10--------10---------10--------10-----------|


e---------------------------------------------------------|
B---------------------------------------------------------|
G---------------------------------------------------------|
D---------5-----5-------5---------5-----------5-----------|
A-------7-----7-------7--------7----------7---------------|
E--10\8-----8-------8--------8--------8-------------------|



e---------------------------------------------------------|
B---------------------------------------------------------|
G---------------------------------------------------------|
D----------7--------7----------7--------7-----------7-----|
A-------8--------8----------8---------8----------8--------|
E--/10--------10--------10---------10--------10-----------|


e---------------------------------------------------------|
B---------------------------------------------------------|
G---------------------------------------------------------|
D---------5-----5-------5---------5-----------5-----------|
A-------7-----7-------7--------7----------7---------------|
E--10\8-----8-------8--------8--------8-------------------|


e---------------------------------------------------------|
B---------------------------------------------------------|
G---------------------------------------------------------|
D----------7--------7----------7--------7-----------7-----|
A-------8--------8----------8---------8----------8--------|
E---10--------10--------10---------10--------10-----------|

Then at 0:23 he goes ->

e---------------------------------------------------------|
B---------------------------------------------------------|
G---------------------------------------------------------|
D-------------9--------9----------9----------9----------9-|
A---------10--------10--------10---------10---------10----|
E--10/12---------12-------12----------12---------12-------|

e----------------------------------------------------------|
B----------------------------------------------------------|
G----------------------------------------------------------|
D-----------10-----------10---------10----------9--------9-|
A--------12----------12----------------------10-------10---|
E--12/13---------13----------13---------12---------12------|


e---------------------------------------------------------|
B---------------------------------------------------------|
G---------------------------------------------------------|
D-----9---------------------------------------------------|
A-------------7~~---5~~~----------------------------------|
E-12----------5~~---3~~~----------------------------------|


Then at 0:35 ->

e----------------------------------------------------------|
B------------------------------0---------------------------|
G------------------------------0---------------------------|
D-----7------3-----2-----------0---------------------------|
A--5-----5------5--------3---------------------------------|
E----------------------------------------------------------|

e---------------------------------------------------------|
B---------------------------------------------------------|
G------------------------------0--------------------------|
D-----7------3-----2-----------0--------------------------|
A--5-----5------5--------3--------------------------------|
E---------------------------------------------------------|


When you pluck those open strings, make sure you don't make them ring out long.
Also add your own effect or something when those open strings are played.. makes it
sound more awesome xD
or replace them with any other note you find better..


....And that's all I've got for now.. I'll tab it later or whenever I get the next parts again..
If any of you guys have some suggestions or wanna add something lemme know.. I'll try
and figure out the rest later on..

Keep Rock Alive! \m/
Suggest correction
comments
print report bad tab
2 comments total.
+2 reply
Zaqq 589 wrote on September 2 2012, 03:29 pm

You could simply take the best bass tab and arrange it for the guitar.

+3 reply
quincylewis2325 10 wrote on October 10 2014, 02:47 am

Righteous tab bro! Here is a little bit I figured out that comes after the end of this tab. Tabbin really aint my thing but I hope it helps my fellow head bangers.

e-----------------------------------------------------------------------|
B-----------------------------------------------------------------------|
G-----------------------------------------------------------------------|
D------5---5--------5---5-----------------------------------------------|
A---7---7---7----7---7---7-----5-9---10--12-10h12p10p9h10--7h9p7--5h7p5-|
E-8-------------7-------------5-----5-----------------------------------|

e----------------------------------------------------------------------|
B----------------------------------------------------------------------|
G-----------------(bend)-----------------------------------------------|
D---------5---5-----12---10h12p10-9-10-9h10p9----9----9----(trem part)-|
A-------7---7---7-----------------------------10---12---10--(10-12-14)-|
E-5-7-8----------------------------------------------------------------|

guest
You may want to rate the tab now too:
select rating
Wanna post a correction for this tab? Suggest correction