Oops, an error
Loading. Please wait.

Astronomy Tab

version 1
version 1

Whole song

Interactive

61,082 views 72 this week
3 commentsread comments
1 2 3 4 5
x 22
add to favorites
launch autoscroll
font size
0
reset
how to read this tab
guitar tuner
Autoscroll
slow
fast
+/-
esc
set tempo
stop
Help us to improve Ultimate-Guitar.com Take our survey!
×
e|--0-0-------|
B|--0-0-0-----|
G|--0-0--2-0--| repeat about 8 times
D|--2-2-------|
A|--2-2-------|
E|--0-0-------|

[Verse]
e|--0--2--0-----0-|-0--3--0----|-0--2--0-----0-|
B|--0--3--1--0--0-|-1--3--1----|-0--3--1--0--0-|
G|--0--2--0--0--0-|-0--0--0--4-|-0--2--0--0--0-|    repeat
D|--2--0--2--0--2-|-2--0--2--4-|-2--0--2--0--2-|
A|--2-----3--2--2-|-3-----3--2-|-2-----3--2--2-|
E|--0-----------0-|----3-------|-0-----------0-|

[riff with harmony]
e|-------------------------|-------------------------------|
B|-------------------------|-------------------------------|
G|-------------------------|-------------------------------|
D|--9-7--7------9-7--7-----|B--5-3-5-5---------------------|
A|-----10-10-9-----10-10-7-|G---------4-4-7--5-4-2-5-4-2-4-|
E|-------------------------|-------------------------------|

(play C5 and D5 leading up to the chorus)

[Chorus]
e|--------------------------|
B|--------------------------|
G|--9--9-9--5-5--7-7-7--9-9-|
D|--9--9-9--5-5--7-7-7--9-9-|
A|--7--7-7--3-3--5-5-5--7-7-|
E|--0-0--0--------------0-0-|

[Verse]
e|--0--2--0-----0-|-0--3--0----|-0--2--0-----0-|
B|--0--3--1--0--0-|-1--3--1----|-0--3--1--0--0-|
G|--0--2--0--0--0-|-0--0--0--4-|-0--2--0--0--0-|    repeat
D|--2--0--2--0--2-|-2--0--2--4-|-2--0--2--0--2-|
A|--2-----3--2--2-|-3-----3--2-|-2-----3--2--2-|
E|--0-----------0-|----3-------|-0-----------0-|

[Chorus]
e|--------------------------|
B|--------------------------|
G|--9--9-9--5-5--7-7-7--9-9-|
D|--9--9-9--5-5--7-7-7--9-9-|
A|--7--7-7--3-3--5-5-5--7-7-|
E|--0-0--0--------------0-0-|

[Outro chorus]
e|--------------------------|
B|--------------------------|
G|--9--9-9--7-7--5-5-5--7-7-|
D|--9--9-9--7-7--5-5-5--7-7-|
A|--7--7-7--5-5--3-3-3--5-5-|
E|--0-0--0------------------|
Suggest correction
comments
print report bad tab
3 comments total.
0 reply
fallen angel 0 Feb 02, 2003 12:00 AM

nice

+2 reply
explorer5858 10 Aug 05, 2006 01:20 PM

detail... if your gonna tab something and do it this shitty, then make sure not to insult metallica with this piece of shit "tab"

0 reply
D'sa 320 Aug 05, 2007 12:40 PM

where's the solo:D

guest
You may want to rate the tab now too:
select rating
Wanna post a correction for this tab? Suggest correction