Oops, an error
Loading. Please wait.

Atlas Rise Bass Tab

version 1
version 1

Whole song

  • Frist bass version, all song sections completed.

Interactive

133 views 99 this week
1 commentread comment
1 2 3 4 5
3 more votes to show rating
add to favorites
launch autoscroll
font size
0
reset
guitar tuner
Autoscroll
slow
fast
+/-
esc
set tempo
stop
Help us to improve Ultimate-Guitar.com Take our survey!
×
Author
Difficulty
Tuning
intermediate
B E A D F# B
About this tab version
Frist bass version, all song sections completed. Was this info helpful? Yes No
Artist:    Metallica
Song:      Atlas Rise
Tuning:    5 string standard
Tabbed by: jjhand 



[Intro] 
G|--------------------------|-------------------------|
D|--------------------------|-------------------------|
A|--------------------------|-------------------------|
E|-5-----0--0--5-----5------|-0--0--5-----5-----------| play 3x
B|--------------------------|-------------------------|

G|--------------------------|-------------------------|
D|--------------------------|-------------------------|
A|--------------------------|-------------------------|
E|-5-----0--0--5-----5------|-5--6--5--3--------------|
B|--------------------------|-------------6--5--3--1--|

G|--------------------------|-------------------------|
D|--------------------------|-------------------------|
A|--------------------------|-------------------------|
E|-5-----0--0--5-----5------|-0--0--5-----5-----------| 
B|--------------------------|-------------------------|

G|--------------------------|-------------------------|
D|--------------------------|-------------------------|
A|--------------------------|-------------------------|
E|-5-----0--0--5-----5------|-5--6--5--3--------------|
B|--------------------------|-------------6--5--3--1--|

G|--------------------------|-------------------------|
D|--------------------------|-------------------------|
A|--------------------------|-------------------------|
E|-5-----0--0--5-----5------|-0--0--5-----5-----------| 
B|--------------------------|-------------------------|

G|--------------------------|-------------------------|
D|--------------------------|-------------------------|
A|--------------------------|-------------------------|
E|-5-----0--0--5-----5------|-5--6--5--3--------------|
B|--------------------------|-------------6--5--3--1--|

G|-------------------------|--------------|
D|-------------------------|--------------|
A|-------------------------|--------------|
E|-5--6--5--3--------------|-5------------| rest during single guitar's riff
B|-------------6--5--3--1--|--------------| 

(0:31)                        6/4
G|--------------------------|------------------------------------|
D|--------------------------|------------------------------------|
A|--------------------------|------------------------------------|
E|-5-----0--0--5-----5------|-0--0--5-----5-----0--0--5----------|
B|--------------------------|------------------------------------|



[Pre-Verse] 
   4/4
G|-------------------------|-------------------------|-------------------------|
D|-------------------------|-------------------------|-------------------------|
A|-------------------------|-------------------------|-------------------------|
E|-0--0--5--3--0--0--------|-0--0--6--5--3--0--3--5--|-3--0--0--0--0--0--0--0--|
B|-------------------3--5--|-------------------------|-------------------------|

G|-------------------------|-------------------------|-------------------------|
D|-------------------------|-------------------------|-------------------------|
A|-------------------------|-------------------------|-------------------------|
E|-0--0--1--0--0--0--5-----|-0--0--5--3--0--0--------|-0--0--6--5--3--0--3--5--|
B|-------------------------|-------------------3--5--|-------------------------|

G|-------------------------|-------------------------|-------------------------|
D|-------------------------|-------------------------|-------------------------|
A|-------------------------|-------------------------|-------12\10-------5/7---|
E|-3--0--0--0--0--0--0--0--|-0--0--1--0--0--0--5-----|-0--0--------0--0--------|
B|-------------------------|-------------------------|-------------------------|

G|-------------------------|-------------------------|-------------------------|
D|-------------------------|-------------------------|-------------------------|
A|-------------------------|-------------------------|-------------------------|
E|-0--0--6--5--3--0--3--5--|-3--0--0--0--0--0--0--0--|-0--0--1--0--0--0--5-----|
B|-------------------------|-------------------------|------------------------­-|

G|-------------------------|-------------------------|
D|-------------------------|-------------------------|
A|-------12\10-------5/7---|-------------------------|
E|-0--0--------0--0--------|-0--0--6--5--3--0--3--0--|
B|-------------------------|-------------------------|

                              6/4
G|--------------------------|------------------------------------|
D|--------------------------|------------------------------------|
A|--------------------------|------------------------------------|
E|-5-----0--0--5-----5------|-0--0--5-----5-----0--0--5----------|
B|--------------------------|------------------------------------|


[Verse]
G|-------------------------|-------------------------|-------------------------|
D|-------------------------|-------------------------|-------------------------|
A|-------------------------|-------------------------|-------------------------|
E|-0--0--0--0--0--0--0--0--|-0--0--0--0--0--0--0--0--|-0--0--0--0--0--0--0--0--|
B|-------------------------|-------------------------|-------------------------|

G|-------------------------|-------------------------|-------------------------|
D|-------------------------|-------------------------|-------------------------|
A|-------------------------|-------------------------|-------------------------|
E|-0--0--1--0--1--0--5-----|-0--0--0--0--0--0--0--0--|-0--0--0--0--0--0--0--0--|
B|-------------------------|-------------------------|-------------------------|

G|-------------------------|-------------------------|-------------------------|
D|-------------------------|-------------------------|-------------------------|
A|-------------------------|-------------------------|-------------------------|
E|-0--0--0--0--0--0--0--0--|-0--0--1--0--1--0--5-----|-0--0--0--0--0--0--0--0--|
B|-------------------------|-------------------------|-------------------------|

G|-------------------------|-------------------------|-------------------------|
D|-------------------------|-------------------------|-------------------------|
A|-------------------------|-------------------------|-------------------------|
E|-0--0--0--0--0--0--5-----|-0--0--0--0--0--0--0--0--|-0--0--1--0--1--0--5-----|
B|-------------------------|-------------------------|-------------------------|

G|-------------------------|-------------------------|-------------------------|
D|-------------------------|-------------------------|-------------------------|
A|-------------------------|-------------------------|-------------------------|
E|-0--0--0--0--0--0--0--0--|-0--0--0--0--0--0--5-----|-0--0--0--0--0--0--0--0--|
B|-------------------------|-------------------------|-------------------------|

G|-------------------------|
D|-------------------------|
A|-------------------------|
E|-0--0--0--0--3-----5-----|
B|-------------------------|



[Prechorus] - play 2x
G|-------------------------|-------------------------|-------------------------|
D|-------------------------|-------------------------|-------------------------|
A|-------------------------|-------------------------|-------------------------|
E|-6\----0--0--0--0--0--0--|-0--0--0--0--0--0--6--5--|-6\----0--0--0--0--0--0--|
B|-------------------------|-------------------------|-------------------------|

G|-------------------------|
D|-------------------------|
A|-------------------------|
E|-0--0--0--0--3-----5-----|
B|-------------------------|



[Chorus] - 
G|-------------------------|---------------------|---------------------------|
D|-------------------------|---------------------|--------------9------------|
A|-3--3--3--3--3--3--3--3--|---------------------|-10----9--10--------10--9--|
E|-------------------------|-0----0----0----0----|---------------------------|
B|-------------------------|---------------------|---------------------------|

G|----------------------|---------------------------|---------------------|
D|----------------------|--------------9------------|---------------------|
A|----------------------|-10----9--10--------10--9--|---------------------|
E|-10---10---10---10----|---------------------------|-0----0----0----0----|
B|----------------------|---------------------------|---------------------|

G|-------------------------|--------------------|-----------------------|---------------------|
D|-------------------------|--------------------|-----------------------|---------------------|
A|-10----9-10--------10-9--|--------------------|-----------------------|---------------------|
E|-------------------------|-12-------14---15---|-11--------11/12-12----|-0----0----0----0----|
B|-------------------------|--------------------|-----------------------|---------------------|

G|---------------------------|----------------------|---------------------------|
D|--------------9------------|----------------------|--------------9------------|
A|-10----9--10--------10--9--|----------------------|-10----9--10--------10--9--|
E|---------------------------|-10---10---10---10----|---------------------------|
B|---------------------------|----------------------|---------------------------|

G|----------------------|-------------------------|----------------------|
D|----------------------|-------------9-----------|----------------------|
A|----------------------|-10----9-10--------10-9--|----------------------|
E|-7----7----7----7-----|-------------------------|-12--------14---15----|
B|----------------------|-------------------------|----------------------|

G|-------------------------|
D|-------------------------|
A|-------------------------|
E|-11----------11/12-12----|
B|-------------------------|


[Pre-Verse 2] - play Pre-Verse riff above
 

[Verse 2] - Play Verse 1 Riff above


[Prechorus 2] - Play Prechorus Riff above


[Chorus 2] 
G|-------------------------|---------------------|---------------------------|
D|-------------------------|---------------------|--------------9------------|
A|-3--3--3--3--3--3--3--3--|---------------------|-10----9--10--------10--9--|
E|-------------------------|-0----0----0----0----|---------------------------|
B|-------------------------|---------------------|---------------------------|

G|----------------------|---------------------------|---------------------|
D|----------------------|--------------9------------|---------------------|
A|----------------------|-10----9--10--------10--9--|---------------------|
E|-10---10---10---10----|---------------------------|-0----0----0----0----|
B|----------------------|---------------------------|---------------------|

G|---------------------------|--------------------|---------------------|---------------------|
D|---------------------------|--------------------|---------------------|---------------------|
A|-10----9--10--------10--9--|--------------------|---------------------|---------------------|
E|---------------------------|-12-------14---15---|-11-------11/12-12---|-0----0----0----0----|
B|---------------------------|--------------------|---------------------|---------------------|

G|---------------------------|----------------------|---------------------------|
D|--------------9------------|----------------------|--------------9------------|
A|-10----9--10--------10--9--|----------------------|-10----9--10--------10--9--|
E|---------------------------|-10---10---10---10----|---------------------------|
B|---------------------------|----------------------|---------------------------|

G|----------------------|---------------------------|----------------------|
D|----------------------|--------------9------------|----------------------|
A|----------------------|-10----9--10--------10--9--|----------------------|
E|-7----7----7----7-----|---------------------------|-12--------14---15----|
B|----------------------|---------------------------|----------------------|

G|-------------------------|-------------------------|----------------------|
D|-------------------------|-------------------------|----------------------|
A|-------------------------|-------------------------|----------------------|
E|-11----------11/12-12----|-11----------11/12-12----|-12--------14---15----|
B|-------------------------|-------------------------|----------------------|

G|-------------------------|
D|-------------------------|
A|-------------------------|
E|-11----------11/12-12----|
B|-------------------------|


[Bridge]
G|---------------------------|---------------------------|-------------------------|
D|--------------9------------|--------------9------------|-------------------------|
A|-10----9--10--------10--9--|-10----9--10--------10--9--|-10----9--7--9-----7-----|
E|---------------------------|---------------------------|----------------------10-|
B|---------------------------|---------------------------|-------------------------|

G|---------------------------|---------------------------|--------------------------|
D|---------------------------|---------------------------|--------------------------|
A|-------------10------------|-------------10------------|--------------------------|
E|-12---10--12--------12--10-|-12---10--12--------12--10-|-12----10--9--10----9--7--|
B|---------------------------|---------------------------|--------------------------|

G|--------------------------|----------------------|-------------------------|
D|--------------------------|----------------------|-------------------------|
A|--------------------------|----------------------|-------------------------|
E|-9----7----5--3-----5-----|-6--------------------|-------------3-----5-----|
B|--------------------------|----------------------|-------------------------|



[Pre-Solo] - play 4x
G|-------------------------|-------------------------|-------------------------|
D|-------------------------|-------------------------|-------------------------|
A|-------------------------|-------------------------|-------------------------|
E|-0--0--0--0--0--0--0--0--|-0--0--0--0--6--5--3--5--|-0--0--0--0--0--0--0--0--|
B|-------------------------|-------------------------|-------------------------|

G|------------------------|
D|------------------------|
A|------------------------|
E|-3--0--3-----3h5---3----|
B|------------------------|



[Solo, part 1]
G|-------------------------|-------------------------|-------------------------|
D|-------------------------|-------------------------|-------------------------|
A|-------------------------|-------------------------|-------------------------|
E|-0--0--0--0--0--0--0--0--|-0--0--0--0--6--5--3--5--|-0--0--0--0--0--0--0--0--|
B|-------------------------|-------------------------|-------------------------|

G|------------------------|-------------------------|-------------------------|
D|------------------------|-------------------------|-------------------------|
A|------------------------|-------------------------|-------------------------|
E|-3--0--3-----3h5---3----|-0--0--0--0--0--0--0--0--|-0--0--0--0--6--5--3--5--|
B|------------------------|-------------------------|-------------------------|

G|-------------------------|------------------------|-------------------------|
D|-------------------------|------------------------|-------------------------|
A|-------------------------|------------------------|-------------------------|
E|-0--0--0--0--0--0--0--0--|-3--0--3-----3h5---3----|-3--3--3-----3--3--3-----|
B|-------------------------|------------------------|-------------------------|

G|-------------------------|-------------------------|-------------------------|
D|-------------------------|-------------------------|-------------------------|
A|-------------------------|-------------------------|-------------------------|
E|-3--3--3-----3--3-----3--|-3--3--3-----3--3--3-----|-3--3--3-----3--3-----3--|
B|-------------------------|-------------------------|-------------------------|

G|-------------------------|-------------------------|-------------------------|
D|-------------------------|-------------------------|-------------------------|
A|-------------------------|-------------------------|-------------------------|
E|-3--3--3-----3--3--3-----|-3--3--3-----3--3-----3--|-3--3--3-----3--3--3-----|
B|-------------------------|-------------------------|-------------------------|

G|-------------------------|-------------------------|-------------------------|
D|-------------------------|-------------------------|-------------------------|
A|-------------------------|-------------------------|-------------------------|
E|-3--3--3-----3--3-----3--|-2--2--2--2--2--2--2--2--|-2--2--2--2--2--2--2--2--|
B|-------------------------|-------------------------|-------------------------|

G|-------------------------|-------------------------|-------------------------|
D|-------------------------|-------------------------|-------------------------|
A|-------------------------|-------------------------|-------------------------|
E|-2--2--2--2--2--2--2--2--|-2--2--2--2--2--2--0--0--|-2--2--2--2--2--2--2--2--|
B|-------------------------|-------------------------|-------------------------|

G|-------------------------|-------------------------|-------------------------|
D|-------------------------|-------------------------|-------------------------|
A|-------------------------|-------------------------|-------------------------|
E|-2--2--2--2--2--2--2--2--|-2--2--2--2--2--2--2--2--|-2--2--2--2--2--2--2-----|
B|-------------------------|-------------------------|-------------------------|


[Solo Break]
G|---------------------|---------------------|---------------------|--------------------|
D|---------------------|---------------------|---------------------|--------------------|
A|---------------------|---------------------|---------------------|--------------------|
E|-0----2--------------|-2---------2---------|-0-----2-------------|-2---------2--------|
B|---------------------|---------------------|---------------------|--------------------|

G|---------------------|---------------------|---------------------|--------------------|
D|---------------------|---------------------|---------------------|--------------------|
A|---------------------|---------------------|---------------------|--------------------|
E|-2----4--------------|-4---------4---------|-2-----4-------------|-4--4--4--2h4-------|
B|---------------------|---------------------|---------------------|--------------------|

G|---------------------|--------------------|----------------------|--------------------|
D|---------------------|--------------------|----------------------|--------------------|
A|---------------------|--------------------|----------------------|--------------------|
E|-4----6--------------|-6---------6--------|-6----6--6--6----6----|-6--6--6----6-------|
B|---------------------|--------------------|----------------------|--------------------|

G|---------------------|-------------------------|-------------------------|
D|---------------------|-------------------------|-------------------------|
A|---------------------|-------------------------|-------------------------|
E|-6--6--6-------------|-0--0--0--0--0--0--0--0--|-0--0--0--0--0--0--0--0--|
B|---------------------|-------------------------|-------------------------|

G|-------------------------|-------------------------|
D|-------------------------|-------------------------|
A|-------------------------|-------------------------|
E|-0--0--0--0--0--0--0--0--|-0--0--0--0--0--0--0--0--|
B|-------------------------|-------------------------|


[Harmonized Solo] 
G|-------------------------|------------------------|-------------------------|
D|-------------------------|------------------------|-------------------------|
A|-------------------------|------------------------|-------------------------|
E|-------------------------|------------------------|-------------------------|
B|-1--1--1--1--1--1--1--1--|-1--1--1--1--1--1--1--1-|-3--3--3--3--3--3--3--3--|

G|-------------------------|------------------------|-------------------------|
D|-------------------------|------------------------|-------------------------|
A|-------------------------|------------------------|-------------------------|
E|-------------------------|-7--7--7--7--7--7--7--7-|-7--7--7--7--5-----7-----|
B|-3--3--3--3--3--3--3--3--|------------------------|-------------------------|

G|-------------------------|------------------------|-------------------------|
D|-------------------------|------------------------|-------------------------|
A|-------------------------|------------------------|-------------------------|
E|-8--8--8--8--8--8--8--8--|-8--8--8--8--8--8--8--8-|-8--8--8--8--8--8--8--8--|
B|-------------------------|------------------------|-------------------------|

G|-------------------------|-------------------------|-------------------------|
D|-------------------------|-------------10----12----|-------------------------|
A|-------------------------|----10-12-10----12----12-|----10-------------------|
E|-8--8--8--8--8--8--8--8--|-10----------------------|-13----13-10-12-13-12-10-|
B|-------------------------|-------------------------|-------------------------|

G|-------------------------|-------------------------|-------------------------|
D|-------------------------|-------------------------|-------------------------|
A|-------------------------|-------------------------|-------------------------|
E|-7--7--7--7--7--7--7--7--|-7--7--7--7--7--7--5--7--|-8--8--8--8--8--8--8--8--|
B|-------------------------|-------------------------|-------------------------|

G|-----------------------|
D|-----------------------|
A|-----------------------|
E|-8--8--8--8--8--8------|
B|-----------------------|

[Bridge to Last Verse]
G|---------------------------|---------------------------|-------------------------|
D|--------------9------------|--------------9------------|-------------------------|
A|-10----9--10--------10--9--|-10----9--10--------10--9--|-10----9--7--9-----7-----|
E|---------------------------|---------------------------|----------------------10-|
B|---------------------------|---------------------------|-------------------------|

G|---------------------------|---------------------------|--------------------------|
D|---------------------------|---------------------------|--------------------------|
A|-------------10------------|-------------10------------|--------------------------|
E|-12---10--12--------12--10-|-12---10--12--------12--10-|-12----10--9--10----9--7--|
B|---------------------------|---------------------------|--------------------------|

G|--------------------------|-------------------------|------------------------|
D|--------------------------|-------------------------|------------------------|
A|--------------------------|-------------------------|------------------------|
E|-9----7----5--3-----6-----|-5-----0--0--5-----5-----|-0--0--5----5-----0--0--| 
B|--------------------------|-------------------------|------------------------| 
   
rest 2 beats before Verse riff


[Final Verse] - Play Verse Riff Again and Prechorus like before


[Final Chorus] - Play Chorus 2 Riff


[Ending]
G|-------------------------|-------------------------|-------------------------|
D|-------------------------|-------------------------|-------------------------|
A|-------------------------|-------------------------|-------------------------|
E|-0--0--0--0--0--0--0--0--|-0--0--0--0--6--5--3--5--|-0--0--0--0--0--0--0--0--|
B|-------------------------|-------------------------|-------------------------|

G|------------------------|-------------------------|-------------------------|
D|------------------------|-------------------------|-------------------------|
A|------------------------|-------------------------|-------------------------|
E|-3--0--3-----3h5---3----|-0--0--0--0--0--0--0--0--|-0--0--0--0--6--5--3--5--|
B|------------------------|-------------------------|-------------------------|

G|-------------------------|------------------------|-------------------------|
D|-------------------------|------------------------|-------------------------|
A|-------------------------|------------------------|-------------------------|
E|-0--0--0--0--0--0--0--0--|-3--0--3-----3h5---3----|-------------------------|
B|-------------------------|------------------------|-3-----5--5--5-----5--5--|

G|-------------------------|------------------------|-------------------------|
D|-------------------------|------------------------|-------------------------|
A|-------------------------|------------------------|-------------------------|
E|-6-----6--6--5-----5--5--|------------------------|-6-----6--6--5-----5--5--|
B|-------------------------|-3-----5--5--5----5--5--|-------------------------|

G|--------------------------|-------------------------|
D|--------------------------|-------------------------|
A|--------------------------|-------------------------|
E|-5-----0--0--5-----5------|-0--0--5-----5-----0--0--|
B|--------------------------|-------------------------|

G|--------------------------|-------------------------|
D|--------------------------|-------------------------|
A|--------------------------|-------------------------|
E|-5-----0--0--5-----5------|-0--0--5-----5-----0--0--|
B|--------------------------|-------------------------|

G|-------------------------|------------------------|
D|-------------------------|------------------------|
A|-------------------------|------------------------|
E|-5--6--5--3--------------|-5--6--5--3-------------| 
B|-------------6--5--3--1--|-------------6--5--3--1-| 

G|-------------------------|-------------------------|-------------------------|
D|-------------------------|-------------------------|-------------------------|
A|-------------------------|-------------------5--7--|-------------------------|
E|-0--0--0--0--0--0--0--0--|-0--0--0--0--5--7--------|-0--0--0--0--0--0--0--0--|
B|-------------------------|-------------------------|-------------------------|

G|-------------------------|-------------------------|-------------------------|
D|-------------------------|-------------------------|-------------------------|
A|-------------5--7--5-----|-------------------------|-------------------5-----|
E|-0--0--0--0-----------7--|-0--0--0--0--0--0--0--0--|-0--0--0--0--5--7-----7--|
B|-------------------------|-------------------------|-------------------------|

G|-------------------------|-------------------------|-------------------------|
D|-------------------------|-------------------------|-------------------------|
A|-5h7---7--7--7--7--7--7--|-5h7---5h7---7--7--7\----|-------------------------|
E|-------------------------|-------------------------|-------------------------|
B|-------------------------|-------------------------|-5-----------5--5--------|

G|-------------------------|-------------------------|
D|-------------------------|-------------------------|
A|-------------------------|-------------------------|
E|-------------------------|-------------------------|
B|-5--5-------5------------|-5\----------------------|


Key:
| /  slide up
| \  slide down
| h  hammer-on
| p  pull-off
| ~  vibrato
| +  harmonic
| x  Mute note
Suggest correction
Give kudos to tab author, rate the tab!
1 2 3 4 5
comments
print report bad tab
1 comment total.
0 reply
jjhand 11,115 2 days ago

I based this tab off of the recording and recent live footage that was played a fret flat of the recording (Eb versus E). Its a really good song, lots of good guitar/bass harmony. Please give it a rating or add comments if you have anything to add.

guest
You may want to rate the tab now too:
select rating
Wanna post a correction for this tab? Suggest correction