Oops, an error
Loading. Please wait.

Atlas Rise Tab

version 1
version 1

Whole song

  • This is the tab containing the main riffs from the... Show more
  • Contains full solo, all individual harmonies together and all guitar tracks.

Interactive

8,035 views 633 this week
no commentswrite comment
1 2 3 4 5
2 more votes to show rating
add to favorites
launch autoscroll
font size
0
reset
how to read this tab
guitar tuner
Autoscroll
slow
fast
+/-
esc
set tempo
stop
Help us to improve Ultimate-Guitar.com Take our survey!
×
Author
Difficulty
intermediate
About this tab version
This is the tab containing the main riffs from the third single from the "Hardwired To Self Destruct" Album. Solo in progress. Enjoy. Was this info helpful? Yes No
METALLICA - ATLAS RISE
======================

Transcription: DelValleKidd
Tuninng      : Standard


Intro:
                                                      x3
E |----------------------------------------------------|
B |----------------------------------------------------|
G |--------------------------------------2h-3--2h-0----|
D |--2-----------2-----2-----------2-----2h-3--2h-0----|
A |--0-----------0-----0-----------0-------------------|
E |--------0M-0M----0M-------0M-0M----0M---------------|

E |----------------------------------------------------|
B |----------------------------------------------------|
G |--------------------------2h-3--2h-0----------------|
D |--------------------------2h-3--2h-0--3M-2M-0M------|
A |--7-----------7-----7-----------------3M-2M-0M-3M---|
E |--5-----0M-0M-5--0M-5--0M----------------------3M---|


E |----------------------------------------------------|
B |----------------------------------------------------|
G |--------------------------------------2h-3--2h-0----|
D |--2-----------2-----2-----------2-----2h-3--2h-0----|
A |--0-----------0-----0-----------0-------------------|
E |--------0M-0M----0M-------0M-0M----0M---------------|


E |----------------------------------------------------|
B |----------------------------------------------------|
G |--------------------------2h-3--2h-0----------------|
D |--------------------------2h-3--2h-0--3M-2M-0M------|
A |--7-----------7-----7-----------------3M-2M-0M-3M---|
E |--5-----0M-0M-5--0M-5--0M----------------------3M---|


E |----------------------------------------------------|
B |----------------------------------------------------|
G |--------------------------------------2h-3--2h-0----|
D |--2-----------2-----2-----------2-----2h-3--2h-0----|
A |--0-----------0-----0-----------0-------------------|
E |--------0M-0M----0M-------0M-0M----0M---------------|


E |----------------------------------------------------|
B |----------------------------------------------------|
G |--------------------------2h-3--2h-0----------------|
D |--------------------------2h-3--2h-0--3M-2M-0M------|
A |--7-----------7-----7-----------------3M-2M-0M-3M---|
E |--5-----0M-0M-5--0M-5--0M----------------------3M---|


E |----------------------------|
B |----------------------------|
G |--2h-3--2h-0----------------|
D |--2h-3--2h-0--3M-2M-0M------|
A |--------------3M-2M-0M-3M---|
E |-----------------------3M---|


E |----------------------------------------------------|
B |----------------------------------------------------|
G |--2-----------------------------------------7-------|
D |--2-----------------------------------------7-------|
A |--0--0M-0M-0M-0M-0M-0M-0M-0M-0M-1h-0--0M-0M---------|
E |----------------------------------------------------|


E |----------------------------------------------------|
B |----------------------------------------------------|
G |--------------------------------------------7-------|
D |--------------------------------------------7-------|
A |--0M-0M-0M-0M-0M-0M-0M-0M-0M-0M-1h-0--0M-0M---------|
E |----------------------------------------------------|


E |----------------------------------------------------|
B |----------------------------------------------------|
G |--------------------------------------------2-------|
D |--------------------------------------------2-------|
A |--0M-0M-0M-0M-0M-0M-0M-0M-0M-0M-1h-0--0M-0M-0-------|
E |----------------------------------------------------|


E |----------------------------------------------------------|
B |----------------------------------------------------------|
G |--------2-----2-----------2-----2-----------2h-3--2h-0----|
D |--------2-----2-----------2-----2-----------2h-3--2h-0----|
A |--------0-----0-----------0-----0-------------------------|
E |--0M-0M----0M-------0M-0M----0M-------0M-0M---------------|



Main Riff:

E |----------------------------------------------------|
B |----------------------------------------------------|
G |----------------------------------------------------|
D |--------7s-5--------7s-9----------------------------|
A |--------7s-5--------5s-7--------1h-0--------5s-7----|
E |--0M-0M-------0M-0M-------0M-0M-------3h-0--3s-5----|


E |----------------------------------------------------|
B |----------------------------------------------------|
G |--------------------------------------------2-------|
D |--------------------------------------------2-------|
A |--5-----------------------------------------0-------|
E |--3h-0--0M-0M-0M-0M-0M-0M-0M-0M-1h-0--0M-0M---------|


E |----------------------------------------------------|
B |----------------------------------------------------|
G |----------------------------------------------------|
D |--------7s-5--------7s-9----------------------------|
A |--------7s-5--------5s-7--------1h-0--------5s-7----|
E |--0M-0M-------0M-0M-------0M-0M-------3h-0--3s-5----|


E |----------------------------------------------------|
B |----------------------------------------------------|
G |--------------------------------------------2-------|
D |--------------------------------------------2-------|
A |--5-----------------------------------------0-------|
E |--3h-0--0M-0M-0M-0M-0M-0M-0M-0M-1h-0--0M-0M---------|


E |----------------------------------------------------|
B |----------------------------------------------------|
G |----------------------------------------------------|
D |--------7s-5--------7s-9----------------------------|
A |--------7s-5--------5s-7--------1h-0--------5s-7----|
E |--0M-0M-------0M-0M-------0M-0M-------3h-0--3s-5----|


E |----------------------------------------------------|
B |----------------------------------------------------|
G |--------------------------------------------2-------|
D |--------------------------------------------2-------|
A |--5-----------------------------------------0-------|
E |--3h-0--0M-0M-0M-0M-0M-0M-0M-0M-1h-0--0M-0M---------|


E |----------------------------------------------------|
B |----------------------------------------------------|
G |----------------------------------------------------|
D |--------7s-5--------7s-9----------------------------|
A |--------7s-5--------5s-7--------1h-0--------5s-7----|
E |--0M-0M-------0M-0M-------0M-0M-------3h-0--3s-5----|


E |----------------------------------------------------------------|
B |----------------------------------------------------------------|
G |--2-----------2-----2-----------2-----2-----------2h-3--2h-0----|
D |--2-----------2-----2-----------2-----2-----------2h-3--2h-0----|
A |--0-----------0-----0-----------0-----0-------------------------|
E |--------0M-0M----0M-------0M-0M----0M-------0M-0M---------------|


Verse:

E |----------------------------------------------------|
B |----------------------------------------------------|
G |----------------------------------------------------|
D |----------------------------------------------------|
A |----------------------------------------------------|
E |--0M-0M-0M-0M-0M-0M-0M-0M-0M-0M-0M-0M-0M-0M-0M-0M---|


E |----------------------------------------------------|
B |----------------------------------------------------|
G |--------------------------------------------2-------|
D |--------------------------------------------2-------|
A |--------------------------------------------0-------|
E |--0M-0M-0M-0M-0M-0M-0M-0M-0M-0M-1h-0--1h-0----------|


E |----------------------------------------------------|
B |----------------------------------------------------|
G |----------------------------------------------------|
D |----------------------------------------------------|
A |----------------------------------------------------|
E |--0M-0M-0M-0M-0M-0M-0M-0M-0M-0M-0M-0M-0M-0M-0M-0M---|


E |----------------------------------------------------|
B |----------------------------------------------------|
G |--------------------------------------------2-------|
D |--------------------------------------------2-------|
A |--------------------------------------------0-------|
E |--0M-0M-0M-0M-0M-0M-0M-0M-0M-0M-1h-0--1h-0----------|


E |----------------------------------------------------|
B |----------------------------------------------------|
G |--------------------------------------------2-------|
D |--------------------------------------------2-------|
A |--------------------------------------------0-------|
E |--0M-0M-0M-0M-0M-0M-0M-0M-0M-0M-0M-0M-0M-0M---------|


E |----------------------------------------------------|
B |----------------------------------------------------|
G |--------------------------------------------2-------|
D |--------------------------------------------2-------|
A |--------------------------------------------0-------|
E |--0M-0M-0M-0M-0M-0M-0M-0M-0M-0M-1h-0--1h-0----------|


E |----------------------------------------------------|
B |----------------------------------------------------|
G |--------------------------------------------2-------|
D |--------------------------------------------2-------|
A |--------------------------------------------0-------|
E |--0M-0M-0M-0M-0M-0M-0M-0M-0M-0M-0M-0M-0M-0M---------|


E |----------------------------------------------------|
B |----------------------------------------------------|
G |----------------------------------------------------|
D |--------------------------------------5-----7-------|
A |--------------------------------------5-----7-------|
E |--0M-0M-0M-0M-0M-0M-0M-0M-0M-0M-0M-0M---------------|


Pre Chorus:

E |----------------------------------------------------|
B |----------------------------------------------------|
G |----------------------------------------------------|
D |--8s----------------------------------------8h-7----|
A |--8s----------2-----------2-----------2-----8h-7----|
E |--------0M-0M-0-----0M-0M-0-----0M-0M-0--0M---------|


E |----------------------------------------------------|
B |----------------------------------------------------|
G |----------------------------------------------------|
D |--8s----------------------------------5-----7-------|
A |--8s----------2-----------2-----------5-----7-------|
E |--------0M-0M-0-----0M-0M-0-----0M-0M---------------|


E |----------------------------------------------------|
B |----------------------------------------------------|
G |----------------------------------------------------|
D |--8s----------------------------------------8h-7----|
A |--8s----------2-----------2-----------2-----8h-7----|
E |--------0M-0M-0-----0M-0M-0-----0M-0M-0--0M---------|


E |----------------------------------------------------|
B |----------------------------------------------------|
G |----------------------------------------------------|
D |--8s----------------------------------5-----7-------|
A |--8s----------2-----------2-----------5-----7-------|
E |--------0M-0M-0-----0M-0M-0-----0M-0M---------------|


E |----------------------------|
B |----------------------------|
G |----------------------------|
D |--3-----3-----3-----3-------|
A |--3-----3-----3-----3-------|
E |--1-----1-----1-----1-------|


Chorus:

E |----------------------------------------------------|
B |----------------------------------------------------|
G |--------------------------------------4~------------|
D |--2-----------------------5s----4--5--------5--4----|
A |--2-------------------------------------------------|
E |--0-------------------------------------------------|


E |----------------------------------------------------|
B |----------------------------------------------------|
G |--------------------------------------4~------------|
D |--7-----------------------5s----4--5--------5--4----|
A |--5-------------------------------------------------|
E |----------------------------------------------------|


E |----------------------------------------------------|
B |----------------------------------------------------|
G |--------------------------------------4~------------|
D |--9-----------------------5s----4--5--------5--4----|
A |--7-------------------------------------------------|
E |----------------------------------------------------|


E |----------------------------------------------------|
B |----------------------------------------------------|
G |----------------------------------------------------|
D |--2--------4--------5-----1~----------1h-2----------|
A |--2--------4--------5-----1~----------1h-2----------|
E |--------0M-------0M----0M-------0M-0M-------0M-0M---|


E |----------------------------------------------------|
B |--------------------------------------3-------------|
G |--------------------------4s----2--4--4~----4--2----|
D |--2-----------------------5s----4--5--------5--4----|
A |--2-------------------------------------------------|
E |--0-------------------------------------------------|


E |----------------------------------------------------|
B |--------------------------------------3-------------|
G |--------------------------4s----2--4--4~----4--2----|
D |--7-----------------------5s----4--5--------5--4----|
A |--5-------------------------------------------------|
E |----------------------------------------------------|


E |----------------------------------------------------|
B |--------------------------------------3-------------|
G |--------------------------4s----2--4--4~----4--2----|
D |--4-----------------------5s----4--5--------5--4----|
A |--2-------------------------------------------------|
E |----------------------------------------------------|


E |----------------------------------------------------|
B |----------------------------------------------------|
G |----------------------------------------------------|
D |--2--------4--------5-----1~----------1h-2----------|
A |--2--------4--------5-----1~----------1h-2----------|
E |--------0M-------0M----0M-------0M-0M-------0M-0M---|



Enjoy!

Need a help with some transcription?
Please feel free to leave a post on my facebook page:

facebook.com/rafikiylosbasuraldos
=)


Legend
h - hammer on/pull off
b - bend
s - slide
~ - vibrato
M - palm mute

Suggest correction
Give kudos to tab author, rate the tab!
1 2 3 4 5
comments
print report bad tab
guest
You may want to rate the tab now too:
select rating
Wanna post a correction for this tab? Suggest correction