Oops, an error
Loading. Please wait.

Atlas Rise Tab

version 3
version 3

Whole song

  • This is the tab containing the main riffs from the... Show more
  • Contains full solo, all individual harmonies together and all guitar tracks.

Interactive

7,402 views 888 this week
no commentswrite comment
1 2 3 4 5
x 7
add to favorites
launch autoscroll
font size
0
reset
how to read this tab
guitar tuner
Autoscroll
slow
fast
+/-
esc
set tempo
stop
Help us to improve Ultimate-Guitar.com Take our survey!
×
Author
Difficulty
intermediate
About this tab version
Contains full solo, all individual harmonies together and all guitar tracks. Was this info helpful? Yes No
Not a difficult to play, but its hard at first to remember the order of riffs, its little chaotic.
Time stamps are taken from single on Spotify, not the video on youtube.

Intro:

(0:00 - 0:10)
e|------------------------------------------------------------------------------------------------|
B|------------------------------------------------------------------------------------------------|
G|-2----2-2------2-2-3-2-0-2----2-2----2--2-3-2-0-2----2-2----2-2-3-2-0-2----2-2--2-3-2-0---------|
D|-2----2-2------2-2-3-2-0-2----2-2----2--2-3-2-0-2----2-2----2-2-3-2-0-2----2-2--2-3-2-0-3-2-0---|
A|-0----0-0------0---------0----0-0----0----------0----0-0----0---------0----0-0----------3-2-0-3-|
E|---0-0-0----0-0-0----------0-0-0--0-0-0-----------0-0-0--0-0-0----------0-0-0-----------------3-|
     . . .    . . .          . . .  . . .           . . .  . . .          . . .           . . . .

(0:10 - 0:22)
e|-----------------------------------------------------------------|
B|-----------------------------------------------------------------|
G|2----2-2----2-2-3-2-0-2----2-2--2-3-2-0---------2-3-2-0----------|
D|2----2-2----2-2-3-2-0-2----2-2--2-3-2-0-3-2-0---2-3-2-0-3-2-0----|
A|0----0-0----0---------0----0-0----------3-2-0-3---------3-2-0-3--|
E|--0-0-0--0-0-0----------0-0-0-----------------3---------------3--|
    . . .  . . .          . . .           . . . .         . . . .

(0:22 - 0:27)
e|-----------------------------------------------------------------|
B|-----------------------------------------------------------------|
G|-----------------------------7~-----------------------------7~---|
D|-2---------------------------7~-2---------------------------7~---|
A|-0-0-0-0-0-0-0-0-0-0-1p0-0-0----0-0-0-0-0-0-0-0-0-0-1p0-0-0------|
E|-----------------------------------------------------------------|
     . . . . . . . . .     . .      . . . . . . . . .     . .

(0:22 - 0:32)
e|---------------------------------------------------------|
B|---------------------------------------------------------|
G|----------------------------2----2-2----2-2----2-3-2-0---|
D|-2--------------------------2----2-2----2-2----2-3-2-0---|
A|-0-0-0-0-0-0-0-0-0-0-1p-0-0-0----0-0----0-0--------------|
E|------------------------------0-0-0--0-0-0--0-0----------|
     . . . . . . . . .    . .   . . .  . . .  . .

Verse:

(0:32 - 0:35)
e|-------------------------------------------------|
B|-------------------------------------------------|
G|-------------7s9---------------------------------|
D|-----7s5-----7s9---------------------------------|
A|-----7s5-----5s7-----8s7s5---5s7s5---------------|
E|-0-0-----0-0-----0-0-6s5s3p0-3s5s3p0-0-0-0-0-0-0-|
   . .     . .     . .                 . . . . . .

(0:35 - 0:46 - repeated 2x)
e|-----------------------------------------------------------------|
B|-----------------------------------------------------------------|
G|-------------2--------------7s9----------------------------------|
D|-------------2------7s5-----7s9----------------------------------|
A|-------------0------7s5-----5s7-----8s7s5---5s7s5----------------|
E|-0-0-1p0-0-0----0-0-----0-0-----0-0-6s5s3p0-3s5s3p0-0-0-0-0-0-0--|
   . .     . .    . .     . .     . .                 . . . . . .

(0:46 - 0:52)
e|----------------------------------------------------------------------------|
B|----------------------------------------------------------------------------|
G|-------------2--------------7s9-----------------2----2-2----2-2----2-3-2-0--|
D|-------------2------7s5-----7s9-----------------2----2-2----2-2----2-3-2-0--|
A|-------------0------7s5-----5s7-----8s7s5---5s7-0----0-0----0-0-------------|
E|-0-0-1p0-0-0----0-0-----0-0-----0-0-6s5s3p0-3s5---0-0-0--0-0-0--0-0---------|
   . .     . .    . .     . .     . .               . . .  . . .  . .

(0:52 - 1:02)
e|---------------------------------------------------------|
B|---------------------------------------------------------|
G|-----------------------------------------------------2---|
D|-----------------------------------------------------2---|
A|-----------------------------------------------------0---|
E|-0-0-0-0-0-0-0-0-0-0-0-0-0-0-0-0-0-0-0-0-0-0-1p0-1p0-----|
   . . . . . . . . . . . . . . . . . . . . . .

(1:02 - 1:08)
e|--------------------------------------------------------------|
B|--------------------------------------------------------------|
G|-----------------------------2-----------------------------2--|
D|-----------------------------2-----------------------------2--|
A|-----------------------------0-----------------------------0--|
E|-0-0-0-0-0-0-0-0-0-0-0-0-0-0---0-0-0-0-0-0-0-0-0-0-1p0-1p0----|
   . . . . . . . . . . . . . .   . . . . . . . . . .

(1:08 - 1:13)
e|-------------------------------------------------------------|
B|-------------------------------------------------------------|
G|-----------------------------2-------------------------------|
D|-----------------------------2-------------------------5-7-8-|
A|-----------------------------0-------------------------5-7-8-|
E|-0-0-0-0-0-0-0-0-0-0-0-0-0-0---0-0-0-0-0-0-0-0-0-0-0-0-------|
   . . . . . . . . . . . . . .   . . . . . . . . . . . .

(1:13 - 1:18)
e|--------------------------------------------------------------|
B|--------------------------------------------------------------|
G|--------------------------------------------------------------|
D|---------------------------8s7-8~---------------------5-7-8~--|
A|-----2-------2-------------8s7-8~-----2-------2-------5-7-8~--|
E|-0-0-0-0-0-0-0-0-0-0-0-0-0--------0-0-0-0-0-0-0-0-0-0---------|
   . .   . . .   . . . . . .        . .   . . .   . . .   

(1:18 - 1:24 )
e|------------------------------------------------------------------|
B|------------------------------------------------------------------|
G|------------------------------------------------------------------|
D|---------------------------8s7-8~---------------------5-7-5-5-5-5-|
A|-----2-------2-------------8s7-8~-----2-------2-------5-7-3-3-3-3-|
E|-0-0-0-0-0-0-0-0-0-0-0-0-0--------0-0-0-0-0-0-0-0-0-0-----3-3-3-3-|
   . .   . . .   . . . . . .        . .   . . .   . . .  

Chorus:

(1:24 - 1:34)
e|-------------------------------------------------------------------------|
B|------------------3------------------------------------------------------|
G|-----------4~-----2---------4~---------------4~--------------------------|
D|-2--5~-4-5----5-4-0--5~-4-5----5-4-9--5~-4-5----5-4-9--11--12-8----8s9-9-|
A|-2----------------0----------------7----------------7--9---10-6----6s7-7-|
E|-0---------------------------------0------------------0---0-----0-0------|
                                                        .   .     . .

(1:24 - 1:34)
e|-------------------------------------------------------------------------|
B|-----------3~-----3---------3~---------------3~--------------------------|
G|----4~-2-4-4~-4-2-2--4~-2-4-4~-4-2-4--4~-2-4-4~-4-2----------------------| → Kirk
D|-2--5~-4-5----5-4-0--5~-4-5----5-4-4--5~-4-5----5-4-9--11--12-8----8s9-9-| → James
A|-2----------------0----------------2----------------7--9---10-6----6s7-7-|
E|-0----------------------------------------------------0---0-----0-0------|
                                                        .   .     . .

Second verse is exactly the same as the first one.

SOLO during second verse:

(1:55 - 2:00)
e|---------------------------------------------------------------------|
B|-14b(1/2)-14-14-12----12-14--15-------15-------15--------12----12-14-|
G|-14b(1/2)-14-14-12----12-14--14b(1/2)-14b(1/2)-14br(1/2)-12----12-14-|
D|-------------------14---------------------------------------14-------|
A|---------------------------------------------------------------------|
E|---------------------------------------------------------------------|

(2:00 - 2:06)
e|--------------------------------------------------------------------------------------|
B|----------12-15p12----12-12----12-14--14b(1/2)-14b(1/2)-14br(1/2)-12----12\----12-----|
G|-14b(1/2)----------14----12----12-14--14b(1/2--14b(1/2)-14br(1/2)-12----12\----12-----|
D|----------------------------14---------------------------------------14-----------14~-|
A|--------------------------------------------------------------------------------------|
E|--------------------------------------------------------------------------------------|

Chorus # 2:

(2:36 - 2:46)
e|-------------------------------------------------------------------------|
B|------------------3------------------------------------------------------|
G|-----------4~-----2---------4~---------------4~--------------------------|
D|-2--5~-4-5----5-4-0--5~-4-5----5-4-9--5~-4-5----5-4-9--11--12-8----8s9-9-|
A|-2----------------0----------------7----------------7--9---10-6----6s7-7-|
E|-0---------------------------------0------------------0---0-----0-0------|
                                                        .   .     . .

(2:46 - 2:56)
e|-------------------------------------------------------------------------|
B|-----------3~-----3---------3~---------------3~--------------------------|
G|----4~-2-4-4~-4-2-2--4~-2-4-4~-4-2-4--4~-2-4-4~-4-2----------------------| → Kirk
D|-2--5~-4-5----5-4-0--5~-4-5----5-4-4--5~-4-5----5-4-9--11--12-8----8s9-9-| → James
A|-2----------------0----------------2----------------7--9---10-6----6s7-7-|
E|-0----------------------------------------------------0---0-----0-0------|
                                                        .   .     . .
e|-------------------------------------------------------------------------|
B|-------------------------------------------------------------------------|
G|---------------------------------------------------11--12--14-8----8s9-9-|
D|-------------------------------------------------------------------------| → Kirk Harmony
A|---------------------------------------------------9---10--12-6----6s9-7-|
E|------------------------------------------------------0---0-----0-0------|
                                                        .   .     . .

(2:56 - 3:00)
e|-----------------------------------|
B|-----------------------------------|
G|-----------------------------------|
D|-8----8s9-9-----------1-----1s2-2--|
A|-6----6s7-7-2---4---5-1-----1s2-2--|
E|---0-0------0-0-2-0-3---0-0--------|
     . .        .   .     . .

Bridge:

(3:00 - 3:08)
James:
e|---------------------------------------------------------------------------------------------|
B|---------------------------------------------------------------------------------------------|
G|--------4~------------4~--------------------------4~------------4~---------------------------|
D|-5~-4-5----5-4-5~-4-5----5-4-5~-4---4~-----5~-4-5----5-4-5~-4-5----5-4-5~-4---4~-------------|
A|----------------------------------7----7-5----------------------------------7----7-5-7~-5-4--|
E|---------------------------------------------------------------------------------------------|

Kirk:
e|---------------------------------------------------------------------------------------------|
B|---------------------------------------------------------------------------------------------|
G|--------4~------------4~---------------------------------------------------------------------|
D|-5~-4-5----5-4-5~-4-5----5-4-5~-4---4~------------5~------------5~---------------------------|
A|----------------------------------7----7-5-7~-5-7----7-5-7~-5-7----7-5-7~-5-4-5~-4-2-4~-2-0--|
E|---------------------------------------------------------------------------------------------|

Accents:

(3:08 - 3:11)
e|-----------------|
B|-----------------|
G|-----------------|
D|-----------------|
A|-5-7-8-----5-7---|
E|-3-5-6-----3-5---|

Instrumental Part:

(3:11 - 3:31 - repeated 4x)
e|---------------------------------------------------------------|
B|---------------------------------------------------------------|
G|---------------------------------------------------------------|
D|---------------------------------------------------------------|
A|-2-----2-----2-----2-----1p0---0-2-----2-----2---5-2-5--5-7-5--|
E|-0-0-0-0-0-0-0-0-0-0-0-0-----3---0-0-0-0-0-0-0-0-3-0-3--3-5-3--|
     . .   . .   . .   . .           . .   . .   .

SOLO:

(3:31 - 3:41)
James (repeated 2x)
e|---------------------------------------------------------------|
B|---------------------------------------------------------------|
G|---------------------------------------------------------------|
D|---------------------------------------------------------------|
A|-2-----2-----2-----2-----1p0---0-2-----2-----2---5-2-5--5-7-5--|
E|-0-0-0-0-0-0-0-0-0-0-0-0-----3---0-0-0-0-0-0-0-0-3-0-3--3-5-3--|
     . .   . .   . .   . .           . .   . .   .

Kirk:
e|------------------------------------------------------------------------------------|
B|-----------------------------------------------------------------------15--15--15~--|
G|-12~-12~-12~-12~-12~-12~-12~-12~-12~-12~-12~-12~-12~-12~-12~-12~-12~---14b-14b-14b~-|
D|------------------------------------------------------------------------------------|
A|------------------------------------------------------------------------------------|
E|------------------------------------------------------------------------------------|

e|------------------------------------------------------------------------------------|
B|-15b-15-12---------------------------------15b-15-12-----------------15-------------|
G|-----------14-12----12-14-14b-12----12---------------14-12----12-14b----14br-12-----|
D|-----------------14--------------14----14------------------14-------------------14--|
A|------------------------------------------------------------------------------------|
E|------------------------------------------------------------------------------------|


(3:41 - 3:51)
James (repeated 2x)
e|------------------------------------------------------------------|
B|------------------------------------------------------------------|
G|------------------------------------------------------------------|
D|------------------------------------------------------------------|
A|-5-----5-----5-----5-----4p3---3-5-----5-----5-----5-----4p3---3--|
E|-3-3-3-3-3-3-3-3-3-3-3-3-----6---3-3-3-3-3-3-3-3-3-3-3-3-----6----|
     . .   . .   . .   . .           . .   . .   . .   . .

Kirk:
e|------------------------------------------------------------------------------------|
B|-------15-17-18-17-15-----------------15-17-18-17-15-----------------15--------17---|
G|-------15-17-18-17-15-----------------15-17-18-17-15-----------------15--------17---|
D|-15-17----------------17-15-17--15-17----------------17-15-17--15h17-----15h17------|
A|------------------------------------------------------------------------------------|
E|------------------------------------------------------------------------------------|

e|-18p15---------------------------------------------------------------------|
B|-------18-15----15-18p15---------------------------------------------------|
G|-------------17----------17-15----15-17p15---------------------------------|
D|-------------------------------17----------17-15----15-17p15---------------|
A|-------------------------------------------------17----------17-15-13------|
E|----------------------------------------------------------------------15\--|

(3:51 - 4:01)
James (repeated 2x)
e|------------------------------------------------------------------|
B|------------------------------------------------------------------|
G|------------------------------------------------------------------|
D|------------------------------------------------------------------|
A|-4-----4-----4-----4-----3p2---2-4-----4-----4-----4-----3p2---2--|
E|-2-2-2-2-2-2-2-2-2-2-2-2-----5---2-2-2-2-2-2-2-2-2-2-2-2-----5----|
     . .   . .   . .   . .           . .   . .   . .   . .

Kirk:
e|-----------------------------------------------------|
B|-----------------------------------------------------|
G|-4b--4b-4b-4br-2---------2-4br-4br-4br-4br-4br-2-----|
D|-----------------4~--2-4-------------------------4~--|
A|-----------------------------------------------------|
E|-----------------------------------------------------|

e|------------------------------------------------------------2--------------|
B|--------------------------------------------------------------2~--4-2------|
G|-2h4p2h4p2-2---2h4p2h4p2-2---2h4p2h4p2-2---2h4p4h2p4-2---4b-------4-2--4\--|
D|-------------4-------------4-------------4-------------4---------------4\--|
A|---------------------------------------------------------------------------|
E|---------------------------------------------------------------------------|

Breakdown:

(4:01 - 4:14)
e|-----------------------------------------------------------------|
B|-----------------------------------------------------------------|
G|------5-4~----5-4-2-4------------8-7~----8-7-5-7-----------10-9~-|
D|------5-4~----5-4-2-4------------8-7~----8-7-5-7-----------10-9~-|
A|-2-4------2-4---------4-----5-7------5-7---------7-----7-9-------|
E|-0-2------0-2---------2-0-0-3-5------3-5---------5-0-0-5-7-------|
                          . .                        . .
(4:14 - 4:21)
e|-------------------------------------------------------------------|
B|-------------------------------------------------------------------|
G|------------------------------------------4~----------------4~-----|
D|--------------------------------2--5~-4-5----5-4-5~--5~-4-5----5-4-|
A|-9-----9-9-----9-9-----9-10-9-7-2----------------------------------|
E|-7-0-0-7-7-0-0-7-7-0-0-7-8--7-5-0----------------------------------|
     . .     . .     . .

e|-------------------------------------------------------------------|
B|-------------------------------------------------------------------|
G|------------------------------------------------------------7~-----|
D|-------------------------------------------------9~--9~-7-9----9-7-| → Kirk Harmony
A|-------------------------------------------------------------------|
E|-------------------------------------------------------------------|

Dueling Harmonies:

(4:21 - 4:27)
Rhytm Guitar:
e|------------------------------------------------------------------|
B|------------------------------------------------------------------|
G|------------------------------------------------------------------|
D|-5-----5-----5-----5-----5---5---7-----7-----7-----7-----7---7----|
A|-3-----3-----3-----3-----3---3---5-----5-----5-----5-----5---5----|
E|---3-3---3-3---3-3---3-3---3---3---5-5---5-5---5-5---5-5---5---5--|
     . .   . .   . .   . .   .   .   . .   . .   . .   . .   .   .

James:
e|------------------------------------------------------------------|
B|------------------------------------------------------------------|
G|------------------------------------------------------------------|
D|-4h5~---5~---5~---5~---5~---4h5s7~----7~----7~----7~----7~---9p7--|
A|------------------------------------------------------------------|
E|------------------------------------------------------------------|

Kirk:
e|------------------------------------------------------------------|
B|------------------------------------------------------------------|
G|-7h9~---9~---9~---9~---9~---7h9s11~---11~--11~--11~--11~----12p11-|
D|------------------------------------------------------------------|
A|------------------------------------------------------------------|
E|------------------------------------------------------------------|

(4:27 - 4:32)
Rhytm Guitar
e|------------------------------------------------------------------|
B|------------------------------------------------------------------|
G|------------------------------------------------------------------|
D|-4-----4-----4-----4-----4---4---5-----5-----5-----5-----5---5----|
A|-2-----2-----2-----2-----2---2---3-----3-----3-----3-----3---3----|
E|---2-2---2-2---2-2---2-2---2---2---3-3---3-3---3-3---3-3---3---3--|
     . .   . .   . .   . .   .   .   . .   . .   . .   . .   .   .

James
e|------------------------------------------------------------------|
B|------------------------------------------------------------------|
G|------------------------------------------------------------------|
D|------------------------------------------------------------------|
A|-9~----9~----9~----9~-----7-9s10---7~---7~---7~---7~---7~---10-9--|
E|------------------------------------------------------------------|

Kirk:
e|------------------------------------------------------------------|
B|-------------------------------------------------------------8-7--|
G|-7~---7~---7~---7~---7~---4-7s9-----------------------------------|
D|---------------------------------10~---10~---10~----10~-----------|
A|------------------------------------------------------------------|
E|------------------------------------------------------------------|

(4:32 - 4:36)
Rhytm Guitar:
e|------------------------------------------------------------------|
B|------------------------------------------------------------------|
G|------------------------------------------------------------------|
D|-5-----5-----5-----5-----5---5---7-----7-----7-----7-----7---7----|
A|-3-----3-----3-----3-----3---3---5-----5-----5-----5-----5---5----|
E|---3-3---3-3---3-3---3-3---3---3---5-5---5-5---5-5---5-5---5---5--|
     . .   . .   . .   . .   .   .   . .   . .   . .   . .   .   .

James:
e|--------------------------------------------------------------------------------|
B|--------------------------------------------------------------------------------|
G|-9-7----9-7----9-7----9-7----9-7----7-11-9----11-9----11-9----11-9----11-9----9-|
D|-----10-----10-----10-----10-----10--------12------12------12------12------12---|
A|--------------------------------------------------------------------------------|
E|--------------------------------------------------------------------------------|
        .     .      .       .      .         .       .       .       .       .

Kirk:
e|--------------------------------------------------------------------------------|
B|-8-7---8-7---8-7---8-7---8-7---7-10-8----10-8----10-8----10-8----10-8----8------|
G|-----9-----9-----9-----9-----9--------11------11------11------11------11--------|
D|--------------------------------------------------------------------------------|
A|--------------------------------------------------------------------------------|
E|--------------------------------------------------------------------------------|
       .     .     .     .     .         .      .       .       .        .

(4:36 - 4:42)
Rhytm Guitar
e|------------------------------------------------------------------|
B|------------------------------------------------------------------|
G|------------------------------------------------------------------|
D|-4-----4-----4-----4-----4---4---5-----5-----5-----5-----5---5----|
A|-2-----2-----2-----2-----2---2---3-----3-----3-----3-----3---3----|
E|---2-2---2-2---2-2---2-2---2---2---3-3---3-3---3-3---3-3---3---3--|
     . .   . .   . .   . .   .   .   . .   . .   . .   . .   .   .

James:
e|--------------------------------------------------------------------|
B|--------------------------------------------------------------------|
G|-7-5---7-5---7-5---7-5---7-5---5-9-7----9-7----9-7----9-7----/11--7-|
D|-----9-----9-----9-----9-----9-------10-----10-----10-----10--------|
A|--------------------------------------------------------------------|
E|--------------------------------------------------------------------|
       .     .     .     .     .        .      .      .      .
Kirk:
e|--------------------------------------------------------------------|
B|-7-5---7-5---7-5---7-5---7-5---5-8-7---8-7---8-7---8-7---/10--7-----|
G|-----7-----7-----7-----7-----7-------9-----9-----9-----9------------|
D|--------------------------------------------------------------------|
A|--------------------------------------------------------------------|
E|--------------------------------------------------------------------|
       .     .     .     .     .       .     .     .     .

Bridge # 2:

(4:42 - 4:50)
James:
e|---------------------------------------------------------------------------------------------|
B|---------------------------------------------------------------------------------------------|
G|--------4~------------4~--------------------------4~------------4~---------------------------|
D|-5~-4-5----5-4-5~-4-5----5-4-5~-4---4~-----5~-4-5----5-4-5~-4-5----5-4-5~-4---4~-------------|
A|----------------------------------7----7-5----------------------------------7----7-5-7~-5-4--|
E|---------------------------------------------------------------------------------------------|

Kirk:
e|---------------------------------------------------------------------------------------------|
B|---------------------------------------------------------------------------------------------|
G|--------4~------------4~---------------------------------------------------------------------|
D|-5~-4-5----5-4-5~-4-5----5-4-5~-4---4~------------5~------------5~---------------------------|
A|----------------------------------7----7-5-7~-5-7----7-5-7~-5-7----7-5-7~-5-4-5~-4-2-4~-2-0--|
E|---------------------------------------------------------------------------------------------|

Accents # 2:

(4:50 - 4:54)
e|----------------------------------|
B|----------------------------------|
G|-----2-----2-2-----2-2-----2-3-2-0|
D|-----2-----2-2-----2-2-----2-3-2-0|
A|-5-8-0-----0-0-----0-0------------|
E|-3-6---0-0-----0-0-----0-0--------|

Third verse is again identical to the first two.
As is the third chorus same as the second one.

Outro:

(5:49 - 5:59) - repeated 2x)
e|---------------------------------------------------------------|
B|---------------------------------------------------------------|
G|---------------------------------------------------------------|
D|---------------------------------------------------------------|
A|-2-----2-----2-----2-----1p0---0-2-----2-----2---5-2-5--5-7-5--|
E|-0-0-0-0-0-0-0-0-0-0-0-0-----3---0-0-0-0-0-0-0-0-3-0-3--3-5-3--|

(5:59 - 6:04)
e|------------------------------------|
B|------------------------------------|
G|------------3~-2~------------3~-2~--|
D|-2h2p2------3~-2~-2h2p2------3~-2~--|
A|-0h1p0-2-2--------0h1h0-2-2---------|
E|-------0-0--------------0-0---------|

(6:04 - 6:10)
e|-----------------------------------------------------------------|
B|-----------------------------------------------------------------|
G|2----2-2----2-2-3-2-0-2----2-2--2-3-2-0---------2-3-2-0----------|
D|2----2-2----2-2-3-2-0-2----2-2--2-3-2-0-3-2-0---2-3-2-0-3-2-0----|
A|0----0-0----0---------0----0-0----------3-2-0-3---------3-2-0-3--|
E|--0-0-0--0-0-0----------0-0-0-----------------3---------------3--|
    . . .  . . .          . . .           . . . .         . . . .

(6:10 - 6:20 - repeated 4x)
e|-------------------------------|
B|-------------------------------|
G|-------------------------------|
D|-------------------------------|
A|-2-----5---5~------5---5s7s5~--|
E|-0-0-0-3-0-3~--0-0-3-0-3s5s3~--|
     . .   .     . .   .

(6:20 - 6:25)
e|-----------------------------------------|
B|-----------------------------------------|
G|-----------------------------2-3-2-0-----|
D|-----------------------------2-3-2-0--2--|
A|-2-----5---5------5---5---------------2--|
E|-0-0-0-3-0-3--0-0-3-0-3--0-0----------0--|
     . .   .    . .   .    . .

************************************
| .   palm mute
| /   slide up
| \   slide down
| s   slide
| h   hammer-on
| p   pull-off
| ~   vibrato
| x   Mute note
| b   Bend
| br  Bend release
| pb  Pre-bend
| ||  Pinch harmonics
| w   whammy bar (↑ = pull up,↓ = push down/dive bomb)
************************************
Suggest correction
comments
print report bad tab
guest
You may want to rate the tab now too:
select rating
Wanna post a correction for this tab? Suggest correction