Oops, an error
Loading. Please wait.

Battery Bass Tab

version 2
version 2
4,415 views 1 this week
1 commentread comment
1 2 3 4 5
accurate
x 4
add to favorites
launch autoscroll
font size
0
reset
guitar tuner
Autoscroll
slow
fast
+/-
esc
set tempo
stop
Help us to improve Ultimate-Guitar.com Take our survey!
×
Author
Difficulty
intermediate
Band - Metallica
Song - Battery
Album - Master Of Puppets
Year - 1986

Intro
G|---------------------------------|---------------------------------|
D|*--------------------------------|---------------------------------|
A|*--------------------------------|---------------------------------|
E|-0~------0-0-1~------------------|-2~------2-2-3~------------------|
                                                                rpt x2
G|---------------------------------|---------------------------------|
D|---------------------------------|--------------------------------*|
A|---------------------------------|--------------------------------*|
E|-0~------0-0-1~------------------|-2~------2-2-3~----------3-2-1---|

G|---------------------------------|---------------------------------|
D|---------------------------------|---------------------------------|
A|---------2-----------------------|---------------------------------|
E|-0---------------3-------2-------|-0-------------------------------|

G|---------------------------------|---------------------------------|
D|---------------------------------|---------------------------------|
A|---------------------------------|---------------------------------|
E|-0---------6-6-5-0---------------|---------------5h6-5---5---5---5-|

Verse
G|---------------------------------|---------------------------------|
D|---------------------------------|---------------------------------|
A|---------------------------------|---------------------------------|
E|-0-0-0-0-0-6-6-5-0-0-0-0-3-3-2-3-|-0-0-0-0-0-6-6-5-0-2---3-0-3---4-|

Fill 1
G|---------------------------------|---------------------------------|
D|---------------------------------|---------------------------------|
A|---------------------------------|---------------------------------|
E|-0-0-0-0-0-6-6-5-0-0-0-0-3-3-2-3-|-0-0-0-0-0-6-6-5-6-5---5---5---5-|

Chorus
G|---------------------------------|---------------------|
D|---------------------------------|---------------------|
A|-----7-777-5---7-----------------|---------------6b----|
E|-0---------------3-3-3-3-3-3-2-3-|-5-5-5-5-0-5-0-------|

Verse x2
Chorus
Verse
Chorus

Riff 1
G|---------------------------------|---------------------------------|
D|---------------------------------|---------------------------------|
A|---------------------------------|---------2~--------------6---7---|
E|-0-0-0-0-0-6-6-5-0-0-0-0-3-3-2-3-|-0~--------------3~----0---------|

G|---------------------------------|-----------------|
D|---------------------------------|-----------------|
A|---------------------------------|-----------------|
E|-0-0-0-0-0-6-6-5-0-0-0-0-3-3-2-3-|-0-0-0-0-0-6-6-5-|

G|---------------------------------|---------------------------------|
D|---------------------------------|---------------------------------|
A|---------------------------------|---------------------------------|
E|-0-0-0-0-0-6-6-5-0-0-0-0-3-3-2-3-|-0-0-0-0-0-6-6-5-0-6---1---0-----|

Chorus
Verse x2
Chorus
Verse
Chorus
Riff 1

Bridge
G|---------------------------------|
D|---------------------------------|
A|---------------------------------|
E|-0~------------------------------|

G|---------------------------------|---------------------------------|
D|---------------------------------|---------------------------------|
A|---------------------------------|-----------------------------2---|
E|-0---0-0-0-0-0-0-0-0-0-0-0-0-0-2-|-3-3-3-3-3-3-3-3-3-3-3-3p2-0-----|

G|---------------------------------|---------------------------------|
D|---------------------------------|---------------------------------|
A|---------------------------------|---------------------------2-2---|
E|-0---0-0-0-0-0-0-0-0-0-0-0-0-0-2-|-3-3-3-3-3-3-3-3-3-3-3-3-0-------|
                                                                rpt x3
G|---------------------------------|---------------------------------|
D|*--------------------------------|--------------------------------*|
A|*----------------------2-3---2---|-----------------------------2--*|
E|-0---0-0-0-0-0-0-0~--0-----------|-3---3-3-3-3-3-3-3~--3-3p2-0-----|

G|---------------------------------|---------------------------------|
D|---------------------------------|---------------------------------|
A|-----------------------------3~--|---------------------------------|
E|-0---0-0-0-0-0-0-0~----3~--------|-5~------------5h6-5---5---5---5-|

Solo
G|---------------------------------|---------------------------------|
D|*--------------------------------|---------------------------------|
A|*--------------------------------|---------------------------------|
E|-0-0-0-0-7-6-5-0-7-6-5-0-7-6-5-0-|-0-0-0-0-7-6-5-0-7-6-5-0-6-5-0-0-|
                                                                rpt x2
G|---------------------------------|---------------------------------|
D|---------------------------------|--------------------------------*|
A|---------------------------------|--------------------------------*|
E|-0-0-0-0-7-6-5-0-7-6-5-0-7-6-5-0-|-0-0-0-0-7-6-5-0-6-5---5---5---5-|

G|---------------------------------|---------------------------------|
D|---------------------------------|---------------------------------|
A|-----7-----7---------------------|---------------------------------|
E|-0-----0-0---0-2-3-3-3-2-3-3-2-3-|-5-5-3-5-5-5-5-3-2-2-0-2-2-2-3-2-|

G|---------------------------------|---------------------------------|
D|---------------------------------|---------------------------------|
A|-----7-----7---------------------|---------------------------------|
E|-0-0---0-0---0-2-3-3-3-3-3-3-3-2-|-0-------------------------------|

Riff 2 x4
G|---------------------------------|
D|---------------------------------|
A|---------------------------------|
E|-1---6-0-7-0-6-0-7-0-6-0-7-0-2---|

Fill 2
G|---------------------------------|
D|---------------------------------|
A|-----------------------------1---|
E|-------------------------0-0-----|

Verse x2
Chorus
Verse
Chorus
Riff 1 x2
Riff 2 x7

Outro
G|---------------------------------|---------------------------------|
D|---------------------------------|---------------------------------|
A|---------------------------------|---------------------------------|
E|-1---6-0-7-0-6-0-7-0-6-0-7~------|-(7)-----------2-1---1---1---1-0-|
Suggest correction
comments
print report bad tab
1 comment total.
0 reply
TormentedRx 50 wrote on June 29 2009, 02:26 pm

Bass Play Magazine just release this song in their woodshed section. Seeing it made me seriously reconsider what was on the internet about this song. Version 1 of this song is absolutely wrong. As far as I can tell this tab is fairly correct. I was not sure what to think, but watching Rob play it, there is no way it is anything like version 1.

The magazine has the lines like this though.
Verse -
E|-0--0-0-0--0-0-0--6-6-5--0--0-0-0--0-0-0--3-3-2-3--0-0-0--6-6-5--0--2--3--3--4

Fill -
E|-0--0-0-0--0-0-0--6-6-5--0--0-0-0--0-0-0--3-3-2-3--0-0-0--0-0-0--6-6-5-6-5~---

guest
You may want to rate the tab now too:
select rating
Please do not post tabs as comments. Select "correction" instead!