Oops, an error
Loading. Please wait.

Battery Tab

version 3
version 3
147,862 views 138 this week
9 commentsread comments
1 2 3 4 5
worth learning
x 9
add to favorites
launch autoscroll
font size
0
reset
how to read this tab
guitar tuner
Autoscroll
slow
fast
+/-
esc
set tempo
stop
Help us to improve Ultimate-Guitar.com Take our survey!
×
Author
Metallica

Master Of Puppets,(1986),Elektra\

Kirk Hammet,James Hetfeild,Lars Ulrich,Cliff Burton

Battery

[Intro]
 (1)
e|------------------------------------------------------------|
B|------------------------------------------------------------|
G|------------------------------------------------------------|
D|--3-2----2-------2----0--0------3-2----2-------2----0--0----|
A|--2------0-------0-------5------2------0-------0-------5----|
E|--0------1-------2-------3------0------1-------2-------3----|

 (2)
e|------------------------------------------------------------|
B|------3-5-----3-5----------------3-5------5-3~~~~~~~--------|
G|----x-4-5-5---4-5-5~~~~~------x--4-5-5-4--5-4~~~~~~~--------|
D|--x-x-----7-------7~~~~~----x-x------7-5--------------------|
A|--x-------------------------x-------------------------------|
E|------------------------------------------------------------|

e|------------------------------------------------------------|
B|------3-5-----3--3h5p3---------------3-5------5-3~~~~~~~----|
G|----x-4-5-5---4--4h5p4--5~~~~~~----x-4-5-5-4--5-4~~~~~~~----|
D|--x-x-----7-------------7~~~~~~--x-x-----7-5----------------|
A|--x------------------------------x--------------------------|
E|------------------------------------------------------------|

 [Distorted Intro]
e|---------------------------------------------------------|
B|---3-5----------3--5---------3-5-------------5-3~~~~~~~--|
G|---4-5-5~~~~~---4--5-5~~~~~--4-5-5--4~~~~~~--5-4~~~~~~~--|
D|-------7~~~~~--------7~~~~~------7--5~~~~~~--------------|
A|---------------------------------------------------------|
E|---------------------------------------------------------|

e|---------------------------|
B|---3-5-----------5-3~~~~~--|
G|---4-5-5-4~~~~~--5-4~~~~~--|
D|-------7-5~~~~~------------|
A|---------------------------|
E|---------------------------|

e|---3-5--------3--5--------|-----3-5-----------5-3~~~~~--|
B|-------5~~~~-------5~~~~~-|---------5-3~~~~~~-----------|
G|--------------------------|-----------------------------|
D|--------------------------|-----------------------------|
A|--------------------------|-----------------------------|
E|--------------------------|-----------------------------|

e|------------3-5-----------------5-3~~~~~~--|
B|--5~~~~~~~-------5-3~~~~~~~----------------|
G|-------------------------------------------|
D|-------------------------------------------|
A|-------------------------------------------|
E|-------------------------------------------|

e|-----------------------|
B|-----------------------|
G|---------4-------------|
D|------2--4--5--4-------|
A|------2--2--5--6-------|
E|------0-----3----------|

 [Verse]
e|---------------------------------|
B|---------------------------------|
G|---------------------------------|
D|--8--7-------7------7------7-----|
A|--8--7-------7------5------7-----|
E|--6--5-------5------5------5-----|

e|-----|-----|----------------------------------|
B|-----|-----|----------------------------------|
G|-----|-----|----------------------------------|
D|--2--|--5--|--7-----3--3---2------------------|
A|--2--|--5--|--7-----3--3---2------------------|
E|--0--|--3--|--5-----1--1---0------------------|

e|--------------------------------------------|
B|--------------------------------------------|
G|--------------------------------------------|
D|---------------8-8-7----------------5-5-4-5-|
A|---------------8-8-7----------------7-7-6-7-|
E|-0-0-0-0-0-0-0-6-6-5--0-0-0-0-0-0-0---------|

e|--------------------------------------------|
B|--------------------------------------------|
G|--------------------------------------------|
D|---------------8-8-7----4--5---5--6---------|
A|---------------8-8-7----4--5---5--6---------|
E|-0-0-0-0-0-0-0-6-6-5--0-2--3-0-3--4---------|

 [Chorus]
e|-----|-----|----------------------------------|
B|-----|-----|----------------------------------|
G|-----|-----|----------------------------------|
D|--2--|--5--|--7-----3--3---2------------------|
A|--2--|--5--|--7-----3--3---2------------------|
E|--0--|--3--|--5-----1--1---0------------------|

e|--/12-17p12-15p12-14p12--12-17p12-15p12-14p12----|
B|15---------------------15------------------------|
G|-------------------------------------------------|
D|-------------------------------------------------|
A|-------------------------------------------------|
E|-------------------------------------------------|

e|----12-17p12-15p12-14p12--12-17p12-15p12-----|
B|--15--------------------15-------------------|
G|---------------------------------------------|
D|---------------------------------------------|
A|---------------------------------------------|
E|---------------------------------------------|

 [Interlude]
e|---------|-----------|------------|--------------|-----------|--------|
B|---------|-----------|------------|--------------|-----------|--------|
G|---------|-----------|------------|--------------|-----------|--------|
D|--2------|-----------|--5---------|---5---5----5-|-2---------|--------|
A|--2------|-----------|--5---------|---5---5----5-|-2---------|--------|
E|--0------|-----------|--3---------|---3---3--3-3-|-0---------|--------|

e|----------------------------------|-------------------------------------|
B|----------------------------------|-------------------------------------|
G|----------------------------------|-------------------------4----4------|
D|--5-------------------------------|-------------------------4----4------|
A|--5-------------------------------|-------------------------2----2------|
E|--3-------------------------------|-------------------------------------|

e|------------------|-----------------|-------------------|-----------------|
B|------------------|-----------------|-------------------|-----------------|
G|------------------|---------5---7---|-------------------|-------2-----4---|
D|--2-----2-2---x-x-|-2-2---2-5---7---|-5-------5-5---x-x-|-5-5---2-----4---|
A|--2-----2-2---x-x-|-2-2---2-3---5---|-5-------5-5---x-x-|-5-5---0-----2---|
E|--0-----0-0---x-x-|-0-0---0---------|-3-------3-3---x-x-|-3-3-------------|

e|------------------|-----------------|-------------------|-----------------|
B|------------------|-----------------|-------------------|-----------------|
G|------------------|-----------------|-------------------|-----------------|
D|------4-5---------|-----5-----------|-------4-5---------|-----5---4-5-7---|
A|--7-7-----7-----7-|-7-----7-3-3-5/7-|-7p5-------7-----7-|---7---7---------|
E|------------------|-----------------|-----7-------------|-----------------|

e|-----------------|-----------------|----------|---------|----------------|
B|-----------------|-----------------|----------|---------|----------------|
G|-----------------|-------------4---|---4/7----|---------|----------------|
D|-----4-5---------|-2---------------|----------|---------|----------------|
A|-7-7-----7-------|-------2---------|----------|---------|----------------|
E|-----------------|-----------------|----------|---------|----------------|

 [Pre-solo]
e|-----------------|----------|---------|----------------|
B|-----------------|----------|---------|----------------|
G|-------------4---|----------|---------|-3--2--2--2--2--|
D|-2-----5-----4---|-5--------|---------|-3--2--2--2--2--|
A|-2-----5-----2---|-5--------|---------|-1--0--0--0--0--|
E|-0-----3---------|-3--------|---------|----------------|

[Solo]
 (1)
e|---/-)Full-/-)Full---/-)------|-Full/-)Full/-)Full-----|
B|-14-/----14-/------14-/-------|-14-/---14-/-14---------|
G|-14------14--------14---------|-14-----14---14-14-12h14|
D|------------------------------|------------------------|
A|------------------------------|------------------------|
E|------------------------------|------------------------|

e|--------------------------------------|
B|-----------------15p12-15p12-15-12----|
G|-12-12h14p12-----------------------15-|
D|--------------------------------------|
A|--------------------------------------|
E|--------------------------------------|

 (2)
e|--------------------------|---------------------------|
B|--------------------------|---------------------------|
G|-------4--3--------2------|------------------4--3--2--|
D|-------4--3--------2--5---|------------------4--3--2--|
A|-------2--1--------0--5---|------------------2--1--0--|
E|-0--------------------3---|---------------------------|

                              )Full
 (1)                         /        )Full    
e|--------------------------/--|----15---------------------|
B|-12h15p12--12h15p12--12-15---|---------------------------|
G|---------15--------15--------|---------------------------|
D|-----------------------------|---------------------------|
A|-----------------------------|---------------------------|
E|-----------------------------|---------------------------|

 (2)
e|-------------------------------|------------------------------------------|
B|-------------------------------|------------------------------------------|
G|---4---3---2----4----3----2----|-------------------------4----3----2------|
D|---4---3---2----4----3----2----|-------------------------4----3----2------|
A|---2---1---0----2----1----0----|-------------------------2----1----0------|
E|-0-----------0-----------------|--0--0-0-0----0-0-0-----------------------|
           
 (1)     Full  ~~~                                  
e|-15-/--------------15------------|---------------------------------------|
B|-15---------17---17--17p15--17-15|-17---15-12--12-15-12h15p12--12h15p12--|
G|--------------------------16-----|---/16-----14--------------14--------14|
D|---------------------------------|---------------------------------------|
A|---------------------------------|---------------------------------------|
E|---------------------------------|---------------------------------------|

 (2)   
e|---------------------------------------|
B|---------------------------------------|
G|---------------------------4----3----2-|
D|---------------------------4----3----2-|
A|---------------------------2----1----0-|
E|-0-----0-0---0-----0-0-0---------------|

e|-------------------------------------|
B|-------------------------------------|
G|--4-----3-----2------4-----3-----2---|
D|--4-----3-----2------4-----3-----2---|
A|--2-----1-----0------2-----1-----0---|
E|----0-----------0--------------------|

 (1) 
e|---------------------------------------|
B|---------------------------------------|
G|-4p2p0-4p2p0-4p2p0--4-----4p2p0-2p4----|
D|-----------------------0-------------0-|
A|---------------------------------------|
E|---------------------------------------|

e|--------------------------------------------|
B|--------------------------------------------|
G|-4p2p0-4p2p0-4p2p0-2p4-0--4p2p0-4p2p0-4p2p0-|
D|--------------------------------------------|
A|--------------------------------------------|
E|--------------------------------------------|

 (2)
e|---------------------------------------------------|
B|---------------------------------------------------|
G|-------------------------------4-----3------2------|
D|-------------------------------4-----3------2------|
A|-------------------------------2-----1------0------|
E|-0-----0--0--0-----0--0--0-------------------------|

 (1)  
e|---------------------------------------------------|
B|---------------------------------------------------|
G|-4p2p0-4p2p0-6p4p0-6p4p0-8p6p0-8p6p0-10p8p0-10p8p0-|
D|---------------------------------------------------|
A|---------------------------------------------------|
E|---------------------------------------------------|

 (2)
e|------------------------------------------------|-------------------------|
B|------------------------------------------------|-------------------------|
G|---------4-------3-------2----------------------|-----------4-----3----2--|
D|---------4-------3-------2--------5-----3-------|-----------4-----3----2--|
A|---------2-------1-------0--------5-----3-------|-----------2-----1----0--|
E|-0--------------------------------3-----1---0--0|0-0--0-0-0---------------|

 (1)
e|-------------------------------------|-12-15-14-12h14p12--12------------|
B|-12h10p0-12h10p0-12h10p0-12h10p0-14\-|------------------15--15-12h14p12-|
G|-------------------------------------|----------------------------------|
D|-------------------------------------|----------------------------------|
A|-------------------------------------|----------------------------------|
E|-------------------------------------|----------------------------------|

 (2)
e|---------------------------|-----------------------|---------------------|
B|---------------------------|-----------------------|-------r----r---r----|
G|-----4---3---2-----4--3--2-|---------------4--3--2-|-3--2--e--2-e-2-e-2--|
D|-----4---3---2-----4--3--2-|---------------4--3--2-|-3--2--s--2-s-2-s-2--|
A|-----2---1---0-----2--1--0-|---------------2--1--0-|-1--0--t--0-t-0-t-0--|
E|-0--------------0----------|-0--0-0-0--0-0---------|---------------------|

 (1)  
e|---------------------------|-----------------------|---------------------|
B|-14P12---------------------|-----------------------|---------------------|
G|------14-12----------------|-------------9-12------|-----------~~~~~-----|
D|------------14-12----------|--------9-12------12-9-|-12-14-12-14-----14\-|
A|------------------14-13-12-|-10-11-----------------|---------------------|
E|---------------------------|-----------------------|---------------------|

 (2)
e|---------------------|---------------------|------------------|
B|---------------------|---------------------|------------------|
G|---------------------|---------------------|-2----------------|
D|-2-------------------|-5-------------------|-2----------------|
A|-2-------------------|-5-------------------|-0----------------|
E|-0-------------------|-3-------------------|------------------|

 (1)
               Full               
              )~~~                                 Full
e|-----------/---------|---------------------|------)-----------|
B|-------7-10-----10-8-|-7---7-8-7h8p7-------|-----/------------|
G|-----7---------------|---9-----------9-7-6-|-7--7--7--6--4--7-|
D|-7/9-----------------|---------------------|------------------|
A|---------------------|---------------------|------------------|
E|---------------------|---------------------|------------------|

 (2)                                              
e|-----------------------|---------------------------|---------------------|
B|-----------------------|---------------------------|---------------------|
G|-----------------------|-2-------------------------|---------------------|
D|-4---------------------|-2-------------------------|-5-------------------|
A|-4---------------------|-0-------------------------|-5-------------------|
E|-2---------------------|---------------------------|-3-------------------|

                                                             Full
 (1)         Full                 Full                  )~~~~~         
e|--------------)~~~~|~-----------/--------------|----15-----15p1215p12~~-|
B|6------------/-----|-------12-15-------15p12---|-12---------------------|
G|--7---6---7--------|----12------------------14-|------------------------|
D|-------------------|/14------------------------|------------------------|
A|-------------------|---------------------------|------------------------|
E|-------------------|---------------------------|------------------------|

 (2)
e|-------------------------------------------|------------------------------|
B|-------------------------------------------|------------------------------|
G|-2-----------------------------------------|------------------------------|
D|-2-----------------------------------------|--------------------------4---|
A|-0-----------------------------------------|--------------------------4---|
E|-------------------------------------------|--------------------------2---|

 (1)
e|-20p15-20p15----------------14-14----------|------------------------------|
B|----------------------10/12-------12\10----|-10---------------------------|
G|-------------17p16h14-------------------12-|----12-11h12-11h12p11p9-9\----|
D|-------------------------------------------|------------------------------|
A|-------------------------------------------|------------------------------|
E|-------------------------------------------|------------------------------|

[Outro]
e|------------------|-----------------|-----------------|---------|---------|
B|------------------|-----------------|-----------------|---------|---------|
G|------3---4---3---|-4---3---4-------|-----3---4---3---|-4-------|---------|
D|--3---3---4---3---|-4---3---4---4---|-3---3---4---3---|-4-------|---------|
A|--3---1---2---1---|-2---1---2---4---|-3---1---2---1---|-2-------|---------|
E|--1---------------|-------------2---|-1---------------|---------|---------|

e|------------------------|-----------------------|
B|------------------------|-----------------------|
G|------------------------|-----------------------|
D|-4--3-----3-----3-----3-|-2---------------------|
A|-2--1-----1-----1-----1-|-0---------------------|
E|-2--1-----1-----1-----1-|-0---------------------|


************************************

| x  Dead note
| h  Hammer-on
| p  Pull-off
| r  Release
| t  Tapping
| /  Slide up
| \  Slide down
| ~  Vibrato
| s  Slide

************************************
Suggest correction
comments
print report bad tab
9 comments total. Showing first comments.
+1 reply
JPaul17 50 wrote on May 8 2004, 12:00 am

the first part is played with more than one guitar.

0 reply
Metal25 70 wrote on May 8 2004, 12:00 am

This Is Played With More Than One Guitar But For Different Reasons I put It For One Or Two Guitars So You Could Play By Yourself Or With A Freind.

0 reply
Metal25 70 wrote on May 8 2004, 12:00 am

This Is Played With More Than One Guitar But For Different Reasons I put It For One Or Two Guitars So You Could Play By Yourself Or With A Freind.

guest
You may want to rate the tab now too:
select rating
Please do not post tabs as comments. Select "correction" instead!