Oops, an error
Loading. Please wait.

Blackened Bass Tab

version 4
29,639 views 135 this week
2 commentsread comments
1 2 3 4 5
excellent!
x 11
add to favorites
launch autoscroll
font size
0
reset
guitar tuner
Autoscroll
slow
fast
+/-
esc
set tempo
stop
Help us to improve Ultimate-Guitar.com Take our survey!
×
Band: Metallica
Song: Blackened
Album: ...And Justice For All (1988)
Bassist: Jason Newsted
Tuning: Standard

Note:
I made this tab based on the bass master track of the song, so you can be
completely sure that this tab is 100% correct. 

You can hear the bass master track here:
http://www.youtube.com/watch?v=n21MxTY5Ijk

Intro

G|------------------|
D|------------------|
A|-1-----2-33-------|
E|---2-3-----1-0--0-|

G|-----------------------------|-----------------------------|
D|-----------------------------|-----------------------------| x4
A|---7---7---7-8-7---7---7---7-|---7---7---7-8-7-1-----2-33--|
E|-0---0---0-------0---0---6---|-0---0---0---------2-3-----1-|

G|-------------------------|
D|-------------------------| x4
A|-------------1-----2-1---|
E|-0-0-0-0-0-0---2-3-----3-|

Verse 1

G|-------------------------|
D|-------------------------| x3
A|-------------1-----2-1---|
E|-0-0-0-0-0-0---2-3-----3-|

G|-------------------------|
D|-------------------------|
A|-------------1-----2-1---|
E|-3-3-3-3-3-3---2-3-----3-|

G|-------------------------|
D|-------------------------| x3
A|-------------1-----2-1---|
E|-0-0-0-0-0-0---2-3-----3-|

G|-------------------------|
D|-------------------------|
A|-------------1-----2-1---|
E|-3-3-3-3-3-3---2-3-----3-|

G|-----------------------------|-----------------------------|
D|-----------------------------|-----------------------------|
A|---7---7---7-8-7---7---7---7-|---7---7---7-8-7-1-----2-33--|
E|-0---0---0-------0---0---6---|-0---0---0---------2-3-----1-|

G|---------------------------------------|
D|---------------------------------------|
A|---7---7---7---7---7---7---7-----------|
E|-0---0---0---6---0---0---6---0-0-0-0-0-|

Chorus

G|------------------------------|
D|------------------------------|
A|-----5-----3------------------|
E|-5-5---3-3---3-3-2--333-333-0-|

G|--------------------------------|
D|--------------------------------|
A|-----5-----3-3------------------|
E|-5-5---3-3-----3-2--3-333-0-2-2-|

Verse 2

G|-------------------------|
D|-------------------------| x3
A|-------------1-----2-1---|
E|-0-0-0-0-0-0---2-3-----3-|

G|-------------------------|
D|-------------------------|
A|-------------1-----2-1---|
E|-3-3-3-3-3-3---2-3-----3-|

G|-------------------------|
D|-------------------------| x3
A|-------------1-----2-1---|
E|-0-0-0-0-0-0---2-3-----3-|

G|-------------------------|
D|-------------------------|
A|-------------1-----2-1---|
E|-3-3-3-3-3-3---2-3-----3-|

G|-----------------------------|-----------------------------|
D|-----------------------------|-----------------------------|
A|---7---7---7-8-7---7---7---7-|---7---7---7-8-7-1-----2-33--|
E|-0---0---0-------0---0---6---|-0---0---0---------2-3-----1-|

G|---------------------------------------|
D|---------------------------------------|
A|---7---7---7-8-7---7---7---7---------7-|
E|-0---0---0-------0---0---6---0-0-0-0-0-|

Chorus

G|------------------------------|
D|------------------------------|
A|-----5-----3------------------|
E|-5-5---3-3---3-3-2--333-333-0-|

G|-----------------------------------------------------|
D|-----------------------------------------------------|
A|-----5-----3-3---------------------------------------|
E|-5-5---3-3-----3-2--3-333-0-2-2--3-333-0-2-2--1-1--0-|

Interlude

G|-----------------------------|
D|-----------------------------|
A|-----------------------------|
E|-6-6-6-6-6-6-6-6-6-6-6-6-6-6-|

G|---------------------------------|
D|---------------------------------|
A|-------------------6-6----6-6----|
E|-000--000--000--00-----00-----00-|

G|-----------------|-----------------|-----------------|-------|
D|-----------------|-----------------|-----------------|-------|
A|-------7---------|-----8-7---------|-------7---------|-----6-|
E|-0-5-6---0-0-0-0-|-5-6-----0-0-0-0-|-0-5-6---0-0-0-0-|-5-6---|

G|-----------------|-----------------|-----------------|-------|
D|-----------------|-----8-----------|-----------------|-------|
A|-------7---------|-7-----7---------|-------7---------|-----6-|
E|-0-5-6---0-0-0-0-|---6-----0-0-0-0-|-0-5-6---0-0-0-0-|-5-6---|

Verse 3

G|----------------|-----------------|-----------------|-------|
D|----------------|-----------------|-----------------|-------|
A|----------------|-----8-7---------|-------7---------|-----6-|
E|-0-5-0--0-0-0-0-|-5-6-----0-0-0-0-|-0-5-6---0-0-0-0-|-5-6---|

G|-----------------|-----------------|-----------------|-------|
D|-----------------|-----------------|-----------------|-------|
A|-------7---------|-----8-7---------|-------7---------|-----6-|
E|-0-5-6---0-0-0-0-|-5-6-----0-0-0-0-|-0-5-6---0-0-0-0-|-5-6---|

G|------------------------------------------------------------------|
D|------------------------------------------------------------------|
A|------------------2-3---------------3-----------------------------|
E|-0-1-2--2-2-2-0-2-----2-2-2-2-2-0-2---2-2-3-2-2-3-2\1-1-1-1-1-1-1-|

G|-----------------|-----------------|-----------------|--------------|
D|-----------------|-----------------|-----------------|--------------|
A|-------7---------|-----8-7---------|-------7---------|-----6-6--6-6-|
E|-0-5-6---0-0-0-0-|-5-6-----0-0-0-0-|-0-5-6---0-0-0-0-|-0-0----------|

G|-----------------|-----------------|-----------------|-------|
D|-----------------|-----8-----------|-----------------|-------|
A|-------7---------|-7-----7---------|-------7---------|-----6-|
E|-0-5-6---0-0-0-0-|---6-----0-0-0-0-|-0-5-6---0-0-0-0-|-5-6---|

G|------------------|-----------------|-----------------|-------|
D|------------------|-----------------|-----------------|-------|
A|------------------|-----8-7---------|-------7---------|-----6-|
E|-5-5-6-0--0-0-0-0-|-5-6-----0-0-0-0-|-5-5-6---0-0-0-0-|-5-6---|

G|-----------------|-----------------|-----------------|-------|
D|-----------------|-----------------|-----------------|-------|
A|-------7---------|-----8-7---------|-------7---------|-----6-|
E|-0-5-6---0-0-0-0-|-5-6-----0-0-0-0-|-0-5-6---0-0-0-0-|-5-6-6-|

G|--------------------------------------------------------|
D|--------------------------------------------------------|
A|------------------2-3---------------3-------------------|
E|-0-1-2--2-2-2-0-2-----2-2-2-2-2-0-2---2-2-3-2-2-3-2\-1/-|

G|--------------|
D|--------------|
A|-7-5-3-2------|
E|--------0-0-0-|

G|-------------|------------|
D|-------------|------------| x3
A|-5-3-2-------|-5-3-2------|
E|-------0-0-0-|------0-0-0-|

G|-----------|
D|-----------|
A|-5-3-2-----|
E|-------0-0-|

Guitar solo

G|---------------------------------|
D|---------------------------------| x7
A|-----------------------------2-3-|
E|-0-3-0-2-0-3-0-2-0-3-0-2-0-3-----|

G|-------------------------------|
D|-------------------------------|
A|-------------------------------|
E|-3-333-0-2-2--3-333-0-2-2--1-1-|

G|-----------------|-----------------|
D|-----------------|-----------------|
A|-7---7---7---7---|-5---5---5---5---|
E|---0---0---0---0-|---0---0---0---0-|
 |                                     x2
G|-----------------|---------------|
D|-----------------|---------------|
A|-8---8---8---8---|-7---7-----5-7-|
E|---0---0---0---0-|---0---0-0-----|

G|-------------------|
D|-------------------|
A|-----------------7-|
E|-0-0-0-0-0-0-0-0-0-|

G|----------------------------|
D|----------------------------|
A|---5-----3------------------|
E|-5---3-3---3-3-2--333-333-0-|

G|--------------------------|
D|--------------------------|
A|-----5-----3--------------|
E|-5-5---3-3---3-3-2--3-333-|

G|-------------------------------------------------------------------|
D|-----------------------------------------------------5---5---------|
A|---7---7---7-7-----7---7---7---7-----5-----------3-3---3-----5---5-|
E|-0---0---0-----0-0---0---0---0---3-3---3-3-3-3-3-----------3---3---|
 |
G|---------------------------------------------------------------|
D|---------------------------------------------------------------|
A|---------------5---5---5---5-----------------3-3-3-3-----------|
E|-3-3-3-3-3-3-3---3---3---3---3-3-3-3-3-3-3-3---------3-3-3-3-3-|

G|-----------------------------|-----------------------------|
D|-----------------------------|-----------------------------| x4
A|---7---7---7-8-7---7---7---7-|---7---7---7-8-7-1-----2-33--|
E|-0---0---0-------0---0---6---|-0---0---0---------2-3-----1-|

Verse 4

G|-------------------------|
D|-------------------------| x3
A|-------------1-----2-1---|
E|-0-0-0-0-0-0---2-3-----3-|

G|-------------------------|
D|-------------------------|
A|-------------1-----2-1---|
E|-3-3-3-3-3-3---2-3-----3-|

G|-------------------------|
D|-------------------------| x3
A|-------------1-----2-1---|
E|-0-0-0-0-0-0---2-3-----3-|

G|-------------------------|
D|-------------------------|
A|-------------1-----2-1---|
E|-3-3-3-3-3-3---2-3-----3-|

G|-----------------------------|-----------------------------|
D|-----------------------------|-----------------------------|
A|---7---7---7-8-7---7---7---7-|---7---7---7-8-7-1-----2-33--|
E|-0---0---0-------0---0---6---|-0---0---0---------2-3-----1-|

G|---------------------------------------|
D|---------------------------------------|
A|---7---7---7-8-7---7---7---7-----------|
E|-0---0---0-------0---0---6---0-0-0-0-0-|

Chorus

G|----------------------------|
D|----------------------------|
A|---5-----3------------------|
E|-5---3-3---3-3-2--333-333-0-|

G|------------------------------|
D|------------------------------|
A|-----5-----3-3--------------7-|
E|-5-5---3-3-----3-2--3-333-0-0-|

G|------------------------------|
D|------------------------------|
A|-----5-----3------------------|
E|-5-5---3-3---3-3-2--333-333-0-|

G|-------------------------------------------------|
D|-------------------------------------------------|
A|-----5-----3-3-----------------------------------|
E|-5-5---3-3-----3-2--3-333-0-2-2-3-333-0-2-2--1-1-|

G|----------------------------|
D|----------------------------|
A|---7---7---7-8-7---7--7-----|
E|-0---0---0-------0------0-0-|

Legend
------
| / = slide up
| \ = slide down
Suggest correction
comments
print report bad tab
2 comments total.
0 reply
jk41 732 wrote on March 16 2011, 02:45 am

wheres the E?
fire
A-7---5---3----
E-0-55--33--332

0 reply
KingNothing666 70 wrote on October 24 2011, 06:10 pm

Damn meant to press thums up, I totally agree! :D Apart from the E thing, awsome tab mate! I know what I'm learning tomorow ;)

guest
You may want to rate the tab now too:
select rating
Please do not post tabs as comments. Select "correction" instead!