Oops, an error
Loading. Please wait.

Broken Beat And Scarred Tab

version 2
version 2
10,687 views 1 this week
no commentswrite comment
1 2 3 4 5
1 last vote to show rating
add to favorites
launch autoscroll
font size
0
reset
how to read this tab
guitar tuner
Autoscroll
slow
fast
+/-
esc
set tempo
stop
Help us to improve Ultimate-Guitar.com Take our survey!
×
Difficulty
intermediate
Guitar I

         PM--|
e|----------------------------------|
B|----------------------------------|
G|----------------------------------|
D|----------------------------------|
A|---6----2-2-----------------------|
E|/7---7--0-0-----------------------|

Guitar II 
            PM--|
e|----------------------------------|
B|----------------------------------|
G|----------------------------------|
D|----------------------------------|
A|-----------2-2--------------------|
E|-----------0-0--------------------|

Guitar I
 PM--|  PM--| PM----------|
e|--------------------------|
B|--------------------------|
G|--------------------------|
D|--------------------------|
A|2-2----2-2---2-2-2-2-2-2--|
E|0-0----0-0---0-0-0-0-0-0--|

Guitar II

e|--------------------------------------|
B|--------------------------------------|
G|--------------------------------------|
D|-------7------------------------------|
A|----/7----8--7-----7-8-7~-------------|
E|0-0-------------10--------------------|



Both Guitars
e|--------------------------------------|
B|--------------------------------------|
G|--------------------------------------|
D|-------7------------------------------|
A|2-2-/7----8--7------------------------|
E|0-0-------------10--------------------|

e|----------------------------------------------------------|
B|----------------------------------------------------------|
G|----------------------------------------------------------|
D|----------------------------------------------------------|
A|-----H--P-------------------------------------------------|
E|14-14-17-14\(13)-12-0--0--12--12--0--0--12--0-0--12-0-12--|


Suggest correction
Give kudos to tab author, rate the tab!
1 2 3 4 5
comments
print report bad tab
guest
You may want to rate the tab now too:
select rating
Wanna post a correction for this tab? Suggest correction