Oops, an error
Loading. Please wait.

Broken Beat And Scarred bass

version 2
version 2
1,682 views 1 this week
2 commentsread comments
1 2 3 4 5
x 3
add to favorites
×
Save as Personal and add changes to this tab that will be seen only by you. Learn more ›
×
You can save this tab as Personal to edit and correct it or add notes. All changes will be seen only by you. Learn more »
launch autoscroll
font size
0
reset
guitar tuner
backing track
0:00
0:00
edit
Autoscroll
slow
fast
+/-
esc
set tempo
stop
Author
Difficulty
-------------------------------------------------------------------------------
                             Broken, Beat & Scarred - Metallica
-------------------------------------------------------------------------------
Tabbed by: MetallicaDMRTL
Tuning:Standerd BEADG 5-string

Hello there just saying this guys other tab, WTF? im srry that was crap enjoi this beast 
of a mothefucker definitly a keeper, so enjoi one of the better songs on bass hell of a 
ride and alot of fun

Master Bass Track:
http://www.youtube.com/watch?v=LsgYyzu28VE


G|---------------------------------------------------------------|
D|---------------------------------------------------------------|
A|----7---------------7---------------7---------------7----------|
E|-/6---6\--0-0----/6---6\--0-0----/6---6\--0-0----/6---6\-------|
B|----------------------------------------------------------5-5\-|

G|----------------------------------------------------------------|
D|----------------------------------------------------------------|
A|----7---------------7----------------7---------------7----------|
E|-/6---6\--0-0----/6---6\----------/6---6\--0-0----/6---6\-------|
B|--------------------------5-5\-----------------------------5-5\-|

G|-------------------------------------------------|
D|-------------------------------------------------|the 12`s are correct just
A|----7--------------------------------------------|the 3 and 4 are "General"
E|-/6---6\-----------------------------------------|ideas so listen and try
B|---------/12\\\\\\\\\4////12\\\\\\\\3////12\\\\4-|to get it

G|------------------------------------------------------------------|
D|------------------------------------------------------------------|
A|----------------------------------------------------------------3-|
E|-0-0-3--0-0-3--x-x-x-x-x-x-3--0-0-5--0-0-6--x-x-x-x-x-x-5\----5---|
B|------------------------------------------------------------3-----|

G|----------------------------------------------------------------|
D|----------------------------------------------------------------|
A|---------------------7\---------------7---------------7---------|
E|-0-0-1--0-0-1--0-0/6----1-0--0-0---/6---6\---------/6---6\--0-0-|
B|--------------------------------------------5-5\----------------|

G|--------------------------------------------------------------|
D|--------------------------------------------------------------|
A|----7---------------7--------------7---------------7----------|
E|-/6---6\---------/6---6\--0-0---/6---6\---------/6---6\--0-0--|
B|----------5-5\---------------------------5-5\-----------------|

G|-----------------------------------------------------|
D|--------------------------------7--------------------|
A|----7------------------------/8----8-7---------------|
E|-/6---0-0-1--0-0-1--0-0--0-0------------0-0-1--0-0-1-|
B|-----------------------------------------------------|

G|------------------------------------------------------------------------|
D|------------------------------------------------------------------------|
A|-10h12p10\9-7-----------------------------------------------10-10-10-10-|x3
E|---------------x-x-x-0--0--x-x-x-0--x-x-x-0--0--x-x-x-0--0--------------|
B|------------------------------------------------------------------------|

G|-----------------------------------------------------------------|
D|-----------------------------------------------------------------|
A|-10h12p10\9-7----------------------------------------------------|
E|---------------x-x-x-0--0--x-x-x-0--x-x-x-0--0--x-x-x-0--3-3-3-3-|
B|-----------------------------------------------------------------|

G|---------------------------------------------|
D|---------------------------------------------|
A|---------------------------------------------| x4
E|-3h5p3\2-----------------------------3-3-3-3-|
B|---------5--x-5--5---5---5--5----5-----------|

G|---------------------------------|
D|---------------------------------|
A|---------------------------------|
E|-----------------3-3-3-3-5h6p5-3-|
B|-5-5-5-5-1-1-1-1-----------------|

G|---------------------------------------------|
D|---------------------------------------------|
A|---------------------------------------------|
E|-3h5p3\2-----------------------------3-3-3-3-|
B|---------5----5--5---5---5--5----5-----------|

G|-------------------------------------|
D|-------------------------------------|
A|-------------------------12h13p12-10-|
E|-----------------3-3-3-3/------------|
B|-5-5-5-5-1-1-1-1---------------------|

G|------------------------------------------------|
D|------------------------------------------------|
A|-10h12p10\9-7-----------------------------------|
E|----------------------------------------3-3-3-3-|
B|---------------55-5--5---5---5--5---5-----------|

G|---------------------------------------------------------------------|
D|---------------------------------------------------------------------|
A|---------------------------------------------------------------------|
E|-3--0-0-3--x-x-x-x-x-x-3---0-0-5--0-0-6--x-x-x-x-x-x-5--0-0-1--0-0-1-|
B|---------------------------------------------------------------------|

G|------------------------------------------9-|
D|-----------------------8--7h8p7---------7---|
A|-------7\-----------/8----------8-7---5-----|
E|-0-0/6----1-0--0-0--------------------------|
B|--------------------------------------------|

G|---------------------------------------------------------|
D|---------------------------------------------------------|
A|-10\---------------------5-7-----------------------5-7-2-|
E|-----0-0-0-0-0-0-0-0-0-0-----3-0-0-0-0-0-0-0-0-0-0-------|
B|---------------------------------------------------------|

G|---------------------------------------------------|
D|---------------------------------------------------|
A|---------------------5-7-3---------------------5-7-|
E|-0-0-0-0-0-0-0-0-0-0-------0-0-0-0-0-0-0-0-0-0-----|
B|---------------------------------------------------|

G|--------------------------------------------------------|
D|--------------------------------------------------------|
A|-10---------------------5-7-----------------------5-7-2-|
E|----0-0-0-0-0-0-0-0-0-0-----3-0-0-0-0-0-0-0-0-0-0-------|
B|--------------------------------------------------------|

G|---------------------------------------------------|
D|---------------------------------------------------|
A|---------------------5-7-3---------------------5-7-|
E|-0-0-0-0-0-0-0-0-0-0-------0-0-0-0-0-0-0-0-0-0-----|
B|---------------------------------------------------|

G|------------------------------------------------------|
D|------------------------------------------------------|
A|-------7-------8-------7-------8-----3----------------|
E|-0-5-6---0-5-6---0-5-6---0-5-6-----5-----0-0-1--0-0-1-|
B|---------------------------------3--------------------|

G|---------------------------------------------------------------------|
D|---------------------------------------------------------------------|
A|--------7\---------------7--------------7-------------7--------------|
E|-0-0-/6----1-0--0-0---/6---6\--------/6---6\-0-0---/6---0-0-1--0-0-1-|
B|------------------------------5-5\-----------------------------------|

G|------------------------------|
D|--------7---------------------|
A|-----/8----8-7----------------|
E|-0-0------------0-0-1--0-0-1/-|
B|------------------------------|

G|------------------------------------------------------------------------|
D|------------------------------------------------------------------------|
A|-10h12p10\9-7-----------------------------------------------10-10-10-10-|
E|---------------x-x-x-0--0--x-x-x-0--x-x-x-0--0--x-x-x-0--0--------------|
B|------------------------------------------------------------------------|

G|-----------------------------------------------------------------|
D|-----------------------------------------------------------------|
A|-10h12p10\9-7----------------------------------------------------|
E|---------------x-x-x-0--0--x-x-x-0--x-x-x-0--0--x-x-x-0--3-3-3-3-|
B|-----------------------------------------------------------------|

G|---------------------------------------------|
D|---------------------------------------------|
A|---------------------------------------------|
E|-3h5p3\2-----------------------------3-3-3-3-|
B|---------5--x-5--5---5---5--5----5-----------|

G|---------------------------------------------|
D|---------------------------------------------|
A|---------------------------------------------|
E|-3h5p3\2-----------------------------3-3-3-3-|
B|---------5----5--5---5---5--5----5-----------|

G|---------------------------------------------|
D|---------------------------------------------|
A|---------------------------------------------| x2
E|-3h5p3\2-----------------------------3-3-3-3-|
B|---------5--x-5--5---5---5--5----5-----------|

G|---------------------------------|
D|---------------------------------|
A|---------------------------------|
E|-----------------3-3-3-3-5h6p5-3-|
B|-5-5-5-5-1-1-1-1-----------------|

G|------------------------------------------------------|
D|------------------------------------------------------|
A|------------------------------------------------------|
E|-3h5p3\2--------------------------------------3-3-3-3-|
B|---------x-x-x-5--5--x-x-x-5--x-x-x-5--5---5----------|

G|-------------------------------------|
D|-------------------------------------|
A|-------------------------12h13p12-10-|
E|-----------------3-3-3-3/------------|
B|-5-5-5-5-1-1-1-1---------------------|

G|------------------------------------------------|
D|------------------------------------------------|
A|-10h12p10\9-7-----------------------------------|
E|----------------------------------------3-3-3-3-|
B|---------------55-5--5---5---5--5---5-----------|

G|---------------------------------------------------------------------|
D|---------------------------------------------------------------------|
A|---------------------------------------------------------------------|
E|-3--0-0-3--x-x-x-x-x-x-3---0-0-5--0-0-6--x-x-x-x-x-x-5--0-0-1--0-0-1-|
B|---------------------------------------------------------------------|

G|------------------------------------------9-|
D|-----------------------8--7h8p7---------7---|
A|-------7\-----------/8----------8-7---5-----|
E|-0-0/6----1-0--0-0--------------------------|
B|--------------------------------------------|

G|---------------------------------------------------------|
D|*--------------------------------------------------------|
A|-10\---------------------5-7-----------------------5-7-2-|
E|*----0-0-0-0-0-0-0-0-0-0-----3-0-0-0-0-0-0-0-0-0-0-------|
B|---------------------------------------------------------|

G|----------------------------------------------------|
D|---------------------------------------------------*| play these 
A|---------------------5-7-3---------------------5-7--|     2x
E|-0-0-0-0-0-0-0-0-0-0-------0-0-0-0-0-0-0-0-0-0-----*|
B|----------------------------------------------------|

G|-----------------------------------------------------------|
D|-----------------------------------------------------------|
A|-------7-------8-------7-------8-----3---------------------|
E|-0-5-6---0-5-6---0-5-6---0-5-6-----5-----0-0-1--0-0-1--0-0-|
B|---------------------------------3-------------------------|

G|------|
D|------|
A|------|
E|-6--5-|
B|------|

G|--------------------------------------------------|
D|--------------------------------------------------|
A|--------------------------------------------------| x2
E|-0-0-0-6--0-0-0-6--6--6-5--0-0-0-6--0-0-0-6--6--5-|
B|--------------------------------------------------|

G|---------------------------------------------------|
D|---------------------------------------------------|
A|---------------------------------------------------| x2
E|-0-0-0-6--0-0-0-6--6--6-5--0-0-0-6--0-0-0-1--0-0-1-|
B|---------------------------------------------------|

G|----------------------------------------------------------------------|
D|----------------------------------------------------------------------|
A|----------------------------------------------------------------------|
E|-0-0-0-6--0-0-0-6--6--6-5--0-0-0-6--0-0-0-1--0-0-1--0-0-1--0-0-1--0-0-|
B|----------------------------------------------------------------------|

G|--------------------------------------------------|
D|--------------------------------------------------|
A|--------------------------------------------------|
E|-0-0-0-6--0-0-0-6--6--6-5--0-0-0-6--0-0-0-6--6--5-|
B|--------------------------------------------------|

G|---------------------------------------------------|
D|---------------------------------------------------|
A|---------------------------------------------------|
E|-0-0-0-6--0-0-0-6--6--6-5--0-0-0-6--0-0-0-1--0-0-1-|
B|---------------------------------------------------|

G|--------------------------------------------------|
D|--------------------------------------------------|
A|--------------------------------------------------|
E|-0-0-0-6--0-0-0-6--6--6-5--0-0-0-6--0-0-0-6--6--5-|
B|--------------------------------------------------|

G|---------------------------------------------------|
D|---------------------------------------------------|
A|---------------------------------------------------|
E|-0-0-0-6--0-0-0-6--6--6-5--0-0-0-6--0-0-0-1--0-0-1-|
B|---------------------------------------------------|

G|----------------------------|
D|----------------------------|
A|---5-4----5-4----4-3----3-2-|
E|-4------4------4------3-----|
B|----------------------------|

G|---------------------------------------------------|
D|---------------------------------------------------|
A|---------------------------------------------------|
E|-0-0-0-6--0-0-0-6--6--6-5--0-0-0-6--0-0-0-1--0-0-1-|
B|---------------------------------------------------|

G|------------------------------------------------------------------------|
D|------------------------------------------------------------------------|
A|---5-4----5-4----4-3----3-2----7-6----7-6----6-5----5-4-x-x-x-x-x-x-x-x-|
E|-4------4------4------3------6------6------6------5---------------------|
B|------------------------------------------------------------------------|

G|-----------------------------------------------------|
D|-----------------------------------------------------|
A|-----------------------------------------------------| x3
E|-0-0-0-6--5--0-0-0-5--4--0-0-0-4--3--0-0-0-0-0-0-0-0-|
B|-----------------------------------------------------|

G|---------------------------------------------------------------------|
D|---------------------------------------------------------------------|
A|---------------------------------------------------------------------|
E|-0-0-0-6--5--0-0-0-5--4--0-0-0-4--3--0-0-0-0-0-0-0-0-0-0-0-0-0-0-0-0-|
B|---------------------------------------------------------------------|

G|--------------------------------------------------|
D|--------------------------------------------------|
A|-------3--------3--3--3-2--------3--------3--3--2-|
E|-2-2-2----2-2-2------------2-2-2----2-2-2---------|
B|--------------------------------------------------|

G|-----------------------------------------------------------------|
D|-----------------------------------------------------------------|
A|-------3--------3--3--3-2--------3-------------------------------|
E|-2-2-2----2-2-2------------2-2-2----2-2-2-3--2-2-3--2-2-3--2-2-3-|
B|-----------------------------------------------------------------|

G|-----------------------------------------------------------|
D|-----------------------------------------------------------|
A|-----------------------------------------------------------|
E|-x-x-x-x-x-x-3--0-0-5--0-0-6---x-x-x-x-x-x-5--0-0-1--0-0-1-|
B|-----------------------------------------------------------|

G|-----------------------------|
D|-----------------------------|
A|-----------------------------|
E|-0-0-----0-0-----0-0-----0-0-|--slap
B|-----------------------------|

G|---------------------------------------------------------|
D|---------------------------------------------------------|
A|-10\---------------------5-7-----------------------5-7-2-|
E|-----0-0-0-0-0-0-0-0-0-0-----3-0-0-0-0-0-0-0-0-0-0-------|
B|---------------------------------------------------------|

G|---------------------------------------------------|
D|---------------------------------------------------|
A|---------------------5-7-3---------------------5-7-| x4
E|-0-0-0-0-0-0-0-0-0-0-------0-0-0-0-0-0-0-0-0-0-----|
B|---------------------------------------------------|

G|-------------------------------|
D|-------------------------------|
A|-------7-------8-------7-------|
E|-0-5-6---0-5-6---0-5-6---0-5-6-|
B|-------------------------------|

G|------------------------------------------------------------------------|
D|------------------------------------------------------------------------|
A|------------------------------------------------------------------------|
E|-0-0-3--0-0-3--x-x-x-x-x-x-3--0-0-5--0-0-6--x-x-x-x-x-x-5--0-0-1--0-0-1-|
B|------------------------------------------------------------------------|

G|------------------------------|
D|------------------------------|
A|-----------7--------------8---|
E|-0-0--0--6----0-0--0--5-6---6-|
B|------------------------------|

G|---------------------------------------|
D|---------------------------------------|
A|----------------7------------------8---| x2
E|-0-0-x-x-x-x-/6----0-0-x-x-x-x-5-6---6-|
B|---------------------------------------|

G|-------------------------------------|
D|-------------------------------------|
A|----------------7------------------8-|
E|-0-0-x-x-x-x-/6----0-0-x-x-x-x-5-6---|
B|-------------------------------------|

G|------------------------------------------------------------------------|
D|------------------------------------------------------------------------|
A|------------------------------------------------------------------------|
E|-0-0-3--0-0-3--x-x-x-x-x-x-3--0-0-5--0-0-6--x-x-x-x-x-x-5--0-0-1--0-0-1-|
B|------------------------------------------------------------------------|

G|------------------------------------------------------|
D|------------------------------------------------------|
A|------------7--------------8-------------------7--*-*-|
E|-0-0--0--/6----0-0--0--5-6---6--0-0-x-x-x-x-/6----0-0-|
B|------------------------------------------------------|

metallicaDMRTL

                                  \m/Metallica\m/

            
            
Suggest correction
Creating personal tab
Creating personal tab
You can edit any tab online and save it as your Personal.

You can edit, replace or remove any tab part or add personal notes – all changes will be seen only by you.

Personal tabs can be accessed anytime from any device, even offline.
Learn more »
Give kudos to tab author, rate the tab!
1 2 3 4 5
comments
print report bad tab
2 comments total.
0 reply
Zaqq 589 May 02, 2013 07:40 AM

It's not complete. The tab ends somewhere in 2 minutes of the song.

0 reply
MetallicaDMRTL 832 May 02, 2013 01:56 PM

yeah i just uploaded im gonna finish it dont worry dude

guest
You may want to rate the tab now too:
select rating
Wanna post a correction for this tab? Suggest correction