Oops, an error
Loading. Please wait.

Carol Of The Bells Tab

version 2
version 2

Whole song

4,888 views 9 this week
3 commentsread comments
1 2 3 4 5
worth learning
x 1
add to favorites
launch autoscroll
font size
0
reset
how to read this tab
guitar tuner
Tab Pro tools
  • play this tab
  • loop segment
  • change instrument
  • show fretboard
  • metronome
Autoscroll
slow
fast
+/-
esc
set tempo
stop
Contributor
Band- Metallica
Song- Carol Of The Bells
Tuning- Standard

G1  = Guitar 1
G2  = Guitar 2
End = Note that the song ends on (for both guitars)
*** = Harmonic over the neck pickup on a strat (24th fret if you have it)
      Note:  You wont hear this harmonic if the selector switch is on the
      neck pickup, so set it for a different one, the best being the bridge.


Rock on and Merry Christmas!


-----------||-------|-----|---|------------------------------------------------|
-----------||-------|-----|---|------------------------------------------------|
---------9-||-12-11-|-----|---|------------------------------------------------|
-------9---||-------|-x19-|-9-|------------------------------------------------|
-----------||-------|-----|---|------------------------------------------------|
-----------||-------|-----|---|------------------------------------------------|
 G1 pm|---|   G2            ^end intro on                          <-{INTRO}---|

----------------||------------|----------|-15-14h15---------------------------|
----------------||------------|-8-7h8----|----------17------------------------|
----------------||-9--9-9-9-9-|-------9--|------------------------------------|
---2--2-2-2-2---||-9--9-9-9-9-|----------|------------------------------------|
---2--2-2-2-2---||-7--7-7-7-7-|----------|------------------------------------|
---0--0-0-0-0---||------------|----------|------------------------------------|
   Guitar 1          Guitar 2   G1-X8      G2-rest for 4 times/play 4 times

-12--12-12-10-----------------------------------------------------------------|
--------------13-12-12----10-12-10--10-10-12-10-------------------------------|
-----------------------12-----------------------12-9-9------------------------|
------------------------------------------------------------------------------|
------------------------------------------------------------------------------|
------------------------------------------------------------------------------|
  G1 + G2                                                         <-{PART 2}-

-------------------------------||------------------17-19-17-----|-------------|
-------------------10-12-10----||---------17-19-20----------20--|-------------|
-----------9-11-12----------12-||16-18-19-----------------------|-------------|
---9-11-12---------------------||-------------------------------|----x2-------|
-------------------------------||-------------------------------|-------------|
-------------------------------||-------------------------------|-------------|
            Guitar 1                  Guitar 2 (same time)        <-{PART 3}-

------------------------||------------------|----------|-***-|----------------|
------------------------||------------------|----------|-----|----------------|
----------------9-11-12-||---------16-18-19-|----------|-----|----------------|
--------9-11-12---------||16-18-19----------|----------|-----|----------------|
------------------------||------------------|----------|-----|----------------|
------------------------||------------------|----------|-----|----------------|
          Guitar 1 X4       Guitar 2 X4     <-{PART 4}-  G2

--------|-12-12-10------------------------------------------------------------|
--------|----------13-13-12-10-12-10------------------------------------------|
--------|----------------------------12-12-11-9-------------------------------|
--------|---------------------------------------------------------------------|
--------|---------------------------------------------------------------------|
--------|---------------------------------------------------------------------|
 (piano)   Guitar 1 play, rest for piano then play again

--------|-17-17-15-----------------------------------------||-----------------|
--------|----------18-18-17-15-17-15-----------------------||-----------------|
--------|----------------------------17-17-16-14-----------||-----9-----------|
--------|--------------------------------------------------||-----9-----------|
--------|--------------------------------------------------||-----7-----------|
--------|--------------------------------------------------||-----0-----------|
 (piano)  Guitar 2 plays this with guitar 1 the second time    G1 + G2

-------||12-10-------------------||---------------|--------|--------|---------|
-------||------b12-12------------||-8-7h8---------|--------|--------|---------|
--9----||------------------------||-------9-------|--------|--------|---------|
--9----||------------------------||---------------|--------|--------|---------|
--7----||------------------------||---------------|--------|--------|---------|
-------||------------------------||---------------|--------|--------|---------|
  PM G1  G2 1X alone then 2X w/G1  (G1 plays this)  PART 2   PART 3

---------||15-14h15----|-17*--------***-15*-|--------|--------|-------|-------|
-8-7h8---||---------17-|-----18-17*---------|--------|--------|-------|-------|
-------9-||------------|--------------------|--------|--------|-------|-------|
---------||------------|--------------------|--------|--------|-------|-------|
---------||------------|--------------------|--------|--------|-------|-------|
---------||------------|--------------------|--------|--------|-------|-------|
 G1        G2            Guitar 2 harmonics   PART 2   PART 3   PART 4

-15-14h15----|-----------------||--***-|--------------------------------------|
----------17-|-17--17-17-17-17-||------|--------------------------------------|
-------------|-----------------||------|--------------------------------------|
-------------|-----------------||------|-21-\\\\\\-14-//////-21---------------|
-------------|-----------------||------|--------------------------------------|
-------------|-----------------||------|--------------------------------------|
 G1 X12          G1 X4           G2 X8   Pickscrape/Trempick X4

---------------||-17*-17*-17*-***-17*---------------------|***|---------------|
---------------||-----------------------------------------|---|---------------|
-9-9-9-9-9---9-||-----------------------------------------|---|---------------|
-9-9-9-9-9---9-||-----------------------------------------|---|---------------|
-7-7-7-7-7---7-||-----------------------------------------|---|---------------|
-0-0-0-0-0---0-||-----------------------------------------|---|---------------|
 G1         End  G2 Plays harmonics with whammy bar bends  End    <-{ENDING}-
comments
We did not receive enough feedback on this tab! Please rate:
print report bad tab
1 2 3 4 5
3 comments total.
0 reply
yertletheturtle wrote on December 11 2004, 12:00 am

Its by the Trans Siberian Orchestra, n00b.

0 reply
Scourge441 wrote on November 9 2005, 11:55 am

Actually, it's the Trans-Siberian Orchestra featuring Metallica. He's half right.

0 reply
xCompanyCalls wrote on January 16 2006, 09:56 pm

i dont see why tso would want more guitarest, they have two. an those two are kickass. i think the whole metallica thing is just like a rumor.

I want to post or [tab]
guest
You may want to rate the tab now too:
select rating
Please do not post tabs as comments. Select "correction" instead!