Oops, an error
Loading. Please wait.

Charlie Brown Theme tab

version 3
version 3

Whole song

298 views 3 this week
no commentswrite comment
1 2 3 4 5
3 more votes to show rating
add to favorites
×
Save as Personal and add changes to this tab that will be seen only by you. Learn more ›
×
You can save this tab as Personal to edit and correct it or add notes. All changes will be seen only by you. Learn more »
launch autoscroll
font size
0
reset
how to read this tab
guitar tuner
edit
Autoscroll
slow
fast
+/-
esc
set tempo
stop
peanuts



metallica



alBum: Beyond the wall of sound
https://www.discogs.com/Metallica-Beyond-The-Wall-Of-Sound/release/1081751



TRANSCRIBED BY RUDY GUZMAN



guzman_84@hotmail.com


Bass
e:--------------------------------|
B:--------------------------------|
G:--------------------------------|
D:---2h4---2h4---2h4----2h4---2h4-|
A:-0-----0-----0------0-----0-----|
E:--------------------------------|


e:------------------------------------|
B:------2--2-------------------2--2-2-|
G:-2--4-------4-2--4--2--2--4---------|
D:-2------------------2--2------------|
A:-0------------------0--0------------|
E:------------------------------------|

e:------------------------------------|
B:------2--2--------------------------|
G:-2--4-------4-2--4--2--2--4--4-4--4-|
D:-2------------------2--2------------|
A:-0------------------0--0------------|
E:------------------------------------|

e:------------------------------------|
B:------2--2-------------------2--2-2-|
G:-2--4-------4-2--4--2--2--4---------|
D:-2------------------2--2------------|
A:-0------------------0--0------------|
E:------------------------------------|

e:------------------------------------|
B:------2--2--------------------------|
G:-2--4-------4-2--4--2--2--4--4-4--4-|
D:-2------------------2--2------------|
A:-0------------------0--0------------|
E:------------------------------------|

e:---------------------------|
B:---------------------------|
G:---------------------------|
D:---------------------------|
A:---------------------------|
E:-15\-----------------------|

:----------------------------------------------------|
:------------10--------10--------10--------10----10--|
:------------10h11-11--10h11-11--10h11-11--10h11-10--|
:--7-7-7--9------------------------------------------|
:--5-5-5--7------------------------------------------|
:----------------------------------------------------|

:----------------------------------------------------|
:------------10--------10--------10--------10----10--|
:------------10h11-11--10h11-11--10h11-11--10h11-10--|
:--7-7-7--9------------------------------------------|
:--5-5-5--7------------------------------------------|
:----------------------------------------------------|

:----------------------------------------------------|
:------------10--------10--------10--------10----10--|
:------------10h11-11--10h11-11--10h11-11--10h11-10--|
:--7-7-7--9------------------------------------------|
:--5-5-5--7------------------------------------------|
:----------------------------------------------------|

:--------------------------------------------------------------------------------|
:------------10--------10--------10--------10----10------------------------------|
:------------10h11-11--10h11-11--10h11-11--10h11-10----2---2ah~~~~~----2/16\-----|
:--7-7-7--9--------------------------------------------2-------------------------|
:--5-5-5--7--------------------------------------------0---------------------x-x-|
:----------------------------------------------------------------------------x-x-|


tabbed in 2000
hillo son mex






metal up your ass ****in the middle of metal militia****
live at keystone palo alto ca october 31st 1983



metallica



album: kill em all remastered 
live at keystone palo alto ca



TRANSCRIBED BY RUDY GUZMAN



guzman_84@hotmail.com




                                               
e:-------------------------------------------------------|
B:-------------------------------------------------------|
G:-------------------------------------------------------|
D:-2--2-2-----2--2--2-2------2--2--2-2------2--2-2-----2-|
A:-0--0-0-0-0-0--0--0-0-0-0--0--0--0-0-0-0--0--0-0-0-0-0-|
E:-------------------------------------------------------|

e:-----------------------------------------|
B:-----------------------------------------|
G:---------------------------------------2-|
D:-2-2-2------2--------------------------2-|
A:-0-0-0-0-0--0-4p0-3p0-4p0-3p0-4p0------0-|
E:----------------------------------3p0----|

                                                       x2
e:-------------------------------------------------------|
B:-------------------------------------------------------|
G:-------------------------------------------------------|
D:-2--2-2-----2--2--2-2------2--2--2-2------2--2-2-----2-|
A:-0--0-0-0-0-0--0--0-0-0-0--0--0--0-0-0-0--0--0-0-0-0-0-|
E:-------------------------------------------------------|

e:-----------------------------------------|
B:-----------------------------------------|
G:---------------------------------------2-|
D:-2-2-2-2-2--2--------------------------2-|
A:-0-0-0-0-0--0-4p0-3p0-4p0-3p0-4p0------0-|
E:----------------------------------3p0----|

e:-------------------------------------------------------|
B:-------------------------------------------------------|
G:-------------------------------------------------------|
D:-2--2-2-----2--2--2-2------2--2--2-2------2--2-2-----2-|
A:-0--0-0-0-0-0--0--0-0-0-0--0--0--0-0-0-0--0--0-0-0-0-0-|
E:-------------------------------------------------------|


metal up your ass!!!!

e:-------------------------------------------|
B:-------------------------------------------|
G:-------------------------------------------|
D:-2--2-2-----2--2--2-2------2--2--2-2-----2-|
A:-0--0-0-0-0-0--0--0-0-0-0--0--0--0-0-0-0-0-|
E:-------------------------------------------|

metal up your ass!!!!

e:-------------------------------------------|
B:-------------------------------------------|
G:-------------------------------------------|
D:-2--2-2-----2--2--2-2------2--2--2-2-----2-|
A:-0--0-0-0-0-0--0--0-0-0-0--0--0--0-0-0-0-0-|
E:-------------------------------------------|

metal up your fucking ass!!!!

e:-------------------------------------------|
B:-------------------------------------------|
G:-------------------------------------------|
D:-2--2-2-----2--2--2-2------2--2--2-2-----2-|
A:-0--0-0-0-0-0--0--0-0-0-0--0--0--0-0-0-0-0-|
E:-------------------------------------------|


e:---------------------------------------|
B:---------------------------------------|
G:---------------------------------------|
D:---------------------------------------|
A:-8--7--5-----8--7--5-----8--7--5-----7-|
E:-6--5--3-----6--5--3-----6--5--3-----5-|

e:------------------------|
B:------------------------|
G:------------------------|
D:-7-----5-----2-----1--0-|
A:----0-----0-----0-------|
E:------------------------|





hillo son mex

16/04/16

            
            
Suggest correction
Creating personal tab
Creating personal tab
You can edit any tab online and save it as your Personal.

You can edit, replace or remove any tab part or add personal notes – all changes will be seen only by you.

Personal tabs can be accessed anytime from any device, even offline.
Learn more »
Give kudos to tab author, rate the tab!
1 2 3 4 5
comments
print report bad tab
guest
You may want to rate the tab now too:
select rating
Wanna post a correction for this tab? Suggest correction