Oops, an error
Loading. Please wait.

Cunning Stunts Doodle Bass

5,267 views 3 this week
2 commentsread comments
1 2 3 4 5
x 5
add to favorites
launch autoscroll
font size
0
reset
guitar tuner
Autoscroll
slow
fast
+/-
esc
set tempo
stop
"Poor Touring Me Solos"


Bass doodle (with exerpts of My Friend of Misery and Welcome Home Sanitarium)
as performed by Newstead and Hammett
live on Cunning Stunts
tab by john milite G||--------14--16--14--13------|--14--16--14--13----13h14-13------|
D||*---------------------------|------------------------------16--|
A||*---------------------------|----------------------------------|
E||---0------------------------|----------------------------------|

------------------------------|--------------------------||
--14----------19--------------|----------19-------------*||
------16------------16--------|----16----------16-------*||
----------17--------------17--|----------------------0---||

------------11-----------11--|---------11---------11---------|
-----12-----------12---------|--12---------12---------12-----|
--0------0------------0------|------0----------0----------0--|
-----------------------------|-------------------------------|

-------------12---------|-------------12--------|------------11---------11--|
--------9----------9----|--------9--------------|----------------12---------|
--10--------------------|--10-------------------|--0--0--------------0------|
------------------------|-----------------------|---------------------------|

---------11---------11---------|-------------12---------|
--12---------12---------12-----|--------9----------9----|
------0----------0----------0--|--10--------------------|
-------------------------------|------------------------|

-------------12---------||---------14--16--14--13------|
--------9----------9----||*----------------------------|
--10--------------------||*----------------------------|
------------------------||---0--0----------------------|

--14--16--14--13----13h14-13------|------------------------------|
------------------------------16--|--14----------19--------------|
----------------------------------|------16------------16--------|
----------------------------------|----------17--------------17--|

--------------------------||------------11-----------11--|
----------19-------------*||-----12-----------12---------|
----16----------16-------*||--0------0------------0------|
----------------------0---||-----------------------------|

---------11---------11---------|-------------12---------|
--12---------12---------12-----|--------9----------9----|
------0----------0----------0--|--10--------------------|
-------------------------------|------------------------|

-------------12--------|------------11---------11--|
--------9--------------|----------------12---------|
--10-------------------|--0--0--------------0------|
-----------------------|---------------------------|

---------11---------11---------|-------------12---------|--12----------------|
--12---------12---------12-----|--------9----------9----|--9-----------------|
------0----------0----------0--|--10--------------------|--10----------------|
-------------------------------|------------------------|--------------------|

-----10---------10---------10--|--14---------12---------10-----|
---------12---------12---------|------12---------12------------|
--0----------0----------0------|----------0----------0------0--|
-------------------------------|-------------------------------|

-----9---------9---------9--|--12---------10---------9-----|
--------10--------10--------|------10---------10-----------|
--0---------0---------0-----|----------0----------0-----0--|
----------------------------|------------------------------|

-----10---------10---------10--|--14---------12---------10-----|
---------12---------12---------|------12---------12------------|
--0----------0----------0------|----------0----------0------0--|
-------------------------------|-------------------------------|

-----9---------9---------9--|--12---------10---------9-----|
--------10--------10--------|------10---------10-----------|
--0---------0---------0-----|----------0----------0-----0--|
----------------------------|------------------------------|

-----10---------10---------10--|--14---------12---------10-----|
---------12---------12---------|------12---------12------------|
--0----------0----------0------|----------0----------0------0--|
-------------------------------|-------------------------------|

-----9---------9---------9--|--12---------10---------9-----|
--------10--------10--------|------10---------10-----------|
--0---------0---------0-----|----------0----------0-----0--|
----------------------------|------------------------------|

-----10---------10---------10--|--14---------12---------10-----|
---------12---------12---------|------12---------12------------|
--0----------0----------0------|----------0----------0------0--|
-------------------------------|-------------------------------|

-----9---------9---------9--|--12---------10---------9-----|
--------10--------10--------|------10---------10-----------|
--0---------0---------0-----|----------0----------0-----0--|
----------------------------|------------------------------|

--------7-----4--------5--|----------5--------5-----|--------7-----4--------5--|
-----5-----5-----5--------|----7--------7--------7--|-----5-----5-----5--------|
--0-----------------0-----|-------0--------0--------|--0-----------------0-----|
--------------------------|-------------------------|--------------------------|

----------5--------5-----|--------7-----4--------5--|----------5--------5-----|
----7--------7--------7--|-----5-----5-----5--------|----7--------7--------7--|
-------0--------0--------|--0-----------------0-----|-------0--------0--------|
-------------------------|--------------------------|-------------------------|

--------7-----4--------5--|----------7--------9------||
-----5-----5-----5--------|----7--------9--------10--||
--0-----------------0-----|-------0--------0---------||
--------------------------|--------------------------||====
Suggest correction
comments
print report bad tab
2 comments total.
0 reply
bassplayerguy69 10 Aug 26, 2008 12:44 PM

awesome tab one of the best i have ever read!!!!!!!

0 reply
Fonse 10 Jan 01, 2011 10:49 AM

AWZM! tnx man! great tab

guest
Wanna post a correction for this tab? Suggest correction