Oops, an error
Loading. Please wait.

Cyanide Bass Tab

version 2
version 2

Whole song

Interactive

8,431 views 6 this week
2 commentsread comments
1 2 3 4 5
accurate
x 5
add to favorites
launch autoscroll
font size
0
reset
guitar tuner
Autoscroll
slow
fast
+/-
esc
set tempo
stop
Help us to improve Ultimate-Guitar.com Take our survey!
×
Contributor
Difficulty
intermediate
Band - Metallica
Song - Cyanide
Album - Death Magnetic
Year - 2008

Intro x4
G|---------------------------------|
D|---------------------------------|
A|---------1---1---1---------------|
E|-0-0-0---------------0-0-0-------|

Verse Riff 1 x8
G|---------------------------------|
D|---------------------------------|
A|---------------------------------|
E|-0-----0-0---0---0----0-0---0----|

Verse Riff 2 x4
G|---------------------------------|
D|---------------------------------|
A|---------7---5-----------7---5---|
E|-0-----0---------0-----0---------|

Verse Riff 1 x8

Pre-Chorus Riff 1
G|---------------------------------|---------------------------------|
D|---------------------------------|---------------------------------|
A|-3-3-3-3-3-3-3-3-3-3-3-3-3-3-3-3-|-3-3-3-3-3-3-3-3-3-3-3-3-3-3-3-3-|
E|---------------------------------|---------------------------------|

G|---------------------------------|---------------------------------|
D|---------------------------------|---------------------------------|
A|-6-6-6-6-6-6-6-6-6-6-6-6-6-6-6-6-|-2-------2-------5-5-----5-------|
E|---------------------------------|---------------------------------|

Verse Riff 2 x2
Pre-Chorus Riff 1

Pre-Chorus Riff 2
G|------------------------------|---------------------------------|------------------------------|
D|------------------------------|---------------------------------|------------------------------|
A|--------7---5-----------7---5-|---------7---5-------------------|-----------------7---7---7---7|
E|-0----0---------0-----0-------|-0-----0---------6-6-6-6-6-6-6-6-|-6-6-6-6-6-6-6-6--------------|

Chorus
G|---------------------------------|---------------------------------|
D|---------------------------------|------------------------------hp-|
A|---------------------------------|---------------------------4-454-|
E|-0-0-0-0-0-0-0-0-0-0-0-0-0-0-6-3-|-0-0-0-6-7-676-3-0-0-0-6-7-------|

G|---------------------------------|---------------------------------|
D|---------------------------------|------------------------hp-------|
A|---------------------------------|------hp-------------4-454-------|
E|-7-6-3-0-0-0-0-0-0-0-0-6-3-0-0-0-|-6-7-676-3-0-0-0-6-7-------7-6-3-|

Fill
G|---------------------------------|
D|---------------------------------|
A|---------1---1---1---------------|
E|-0-0-0---------------0-0-0-------|

Verse Riff 1 x9
Vesse Riff 2 x4
Verse Riff 1 x8
Pre-Chorus Riff 1
Verse Riff 2 x2
Pre-Chorus Riff 1
Pre-Chorus Riff 2
Chorus

Bridge Intro x2
G|---------------------------------|---------------------------------|
D|---------------------------------|---------------------------------|
A|---------------------------------|---------------------------------|
E|-2-------2-3---2---0---2---------|-2-2-2-3-2-------2-2-2-2-0---2---|

Bridge Riff 1 x4
G|---------------------------------|---------------------------------|
D|---------------------------------|---------------------------------|
A|---------------------------------|---------------------------------|
E|-2---2---2-----2h3-0---2~--------|-2~--------2~--------2~----------|

Bridge Riff 2 x2
G|---------------------------------|---------------------------------|
D|-------2---------------2---------|-------2---------------2---------|
A|---------------------------------|-------------------------------h-|
E|-2-------0--2h3--2-------0--2h3--|-2-------0--2h3--2-------0--2-35-|

Bridge Riff 1 x4
Bridge Riff 2 x2

Bridge Riff 3 x7
G|---------------------------------|---------------------------------|
D|---------------------------------|---------------------------------|
A|---------------------------------|---------------------------------|
E|-2---2---2-----2h3-0---2~--------|-6~--------5~--------3~----------|

Bridge Riff 3 end
G|---------------------------------|---------------------------------|
D|---------------------------------|---------------------------------|
A|---------------------------------|---------------------------------|
E|-2---2---2-----2h3-0---2~--------|-6~--------5~--------------------|

Solo                                                           rpt x4
G|---------------------------------|---------------------------------|
D|*--------------------------------|--------------------------------*|
A|*--------------------------------|---------5---------------3------*|
E|-2-------2-----2h3---2---0---2---|(2)--2-------2-------2-------0---|
                                                               rpt x2
G|---------------------------------|---------------------------------|
D|*--------------------------------|--------------------------------*|
A|*--------------------------------|--------------------------------*|
E|-2---2---2---2---3---2---0---2---|-2---2---2---2---3---2---5---0---|

G|---------------------------------|---------------------------------|
D|---------------------------------|---------------------------------|
A|---------------------------------|---------------------------------|
E|-0~------------------------------|-8---0-0-8---0-0-8---0-0-8---0-0-|

Pre-Chorus Riff 1
Vesse Riff 2 x4
Verse Riff 1 x10
Vesse Riff 2 x2
Pre-Chorus Riff 1
Verse Riff 2 x2
Pre-Chorus Riff 1
Pre-Chorus Riff 2
Chorus
Intro x4
comments
print report bad tab
2 comments total.
0 reply
Bass-hero-3 11 wrote on November 7 2008, 10:19 pm

bitchin'

+1 reply
grantward 24 wrote on July 10 2009, 04:21 pm

good except its not
-------------------
-------------------
-------5--7--------
-0--0--------------
you change the 5 and the 7 around

I want to post or [tab]
guest
You may want to rate the tab now too:
select rating
Please do not post tabs as comments. Select "correction" instead!