Oops, an error
Loading. Please wait.

Damage Inc Tab

version 1
version 1

Whole song

Interactive

20,154 views 9 this week
3 commentsread comments
1 2 3 4 5
accurate
x 8
add to favorites
launch autoscroll
font size
0
reset
how to read this tab
guitar tuner
Autoscroll
slow
fast
+/-
esc
set tempo
stop
Help us to improve Ultimate-Guitar.com Take our survey!
×
Damage, Inc.
                                  By Metallica
                              from Master of Puppets


Intro (after Cliff's solo)
||-----------------------------------------------------------------------------|
||-----------------------------------------------------------------------------|
||-----------------------------------------------------------------------------|
||2--2--2-----2-----3--3--3--3-----2--2--2-----2-----3--3--3--3-----2--2--2----|
||2--2--2-----2-----3--3--3--3-----2--2--2-----2-----3--3--3--3-----2--2--2----|
||0--0--0-----0-----1--1--1--1-----0--0--0-----0-----1--1--1--1-----0--0--0----|

------------------------------------------||
------------------------------------------||
------------------------------------------||
2--2--2--2--2-----2--2--2--2--2--2--2--2--||
2--2--2--2--2-----2--2--2--2--2--2--2--2--||
0--0--0--0--0-----0--0--0--0--0--0--0--0--||

||-----------------------------------------------------------------------------|
||-----------------------------------------------------------------------------|
||-----------------------------------------------------------------------------|
||-----------------------------------------------------------------------------|
||----------------------------------------------------7/8-----7/8-----7--------|
||-0--0--0--0--0--0--0--0--0--0--0--0--0--0--0--0------------------------------|

-------------------------------------------------------------------------------|
-------------------------------------------------------------------------------|
-------------------------------------------------------------------------------|
-------------------------------------------------------------------------------|
--------------------------------------------------7/8-----7/8-----7------------|
0--0--0--0--0--0--0--0--0--0--0--0--0--0--0--0---------------------------------|

-------------------------------------------------------------------------------|
-------------------------------------------------------------------------------|
-------------------------------------------------------------------------------|
-------------------------------------------------------------------------------|
--------------------------------------------------7/8-----7/8-----7------------|
0--0--0--0--0--0--0--0--0--0--0--0--0--0--0--0---------------------------------|

------------------------------------------------------------------||
------------------------------------------------------------------||
------------------------------------------------------------------||
--------------------------------------------------5\4-----5\4--5--||
--------------------------------------------------5\4-----5\4--5--||
2--2--2--2--2--2--2--2--2--2--2--2--2--2--2--2--------------------||

-------------------------------------------------------------------------------|
-------------------------------------------------------------------------------|
---4---------------------------------------------------------------------------|
---4-----5-----7-----5-----4--4--4--4--4--4--4--4--4--4--4--4--4--4--4--4------|
---2-----5-----7-----5-----4--4--4--4--4--4--4--4--4--4--4--4--4--4--4--4------|
---------3-----5-----3-----2--2--2--2--2--2--2--2--2--2--2--2--2--2--2--2------|


  Verse Riff
||---------------------------------------------------------------------------||
||---------------------------------------------------------------------------||
||---------------------------------------------------------------------------||
||-8\-----------------------8\---------------------8\---------------------8--||
||-8\-----------------------8\---------------------8\---------------------8--||
||-6\---0--0--0---0--0--0---6\-0--0--0---0--0--0---6\-0--0--0---0--0--0---6--||


  Chorus
||-----------------------------------------------------------------------------|
||-----------------------------------------------------------------------------|
||--4--------------------------------------------------------------------------|
||--4-----5-----7-----5-----4--4--4--4--4--4--4--4--4--4--4--4--4--4--4--4-----|
||--2-----5-----7-----5-----4--4--4--4--4--4--4--4--4--4--4--4--4--4--4--4-----|
||--------3-----5-----3-----2--2--2--2--2--2--2--2--2--2--2--2--2--2--2--2-----|
Suggest correction
What's this?
You can suggest a correction to this tab. Community and Mods will review your correction and vote to approve or reject it.
comments
print report bad tab
3 comments total.
0 reply
sk8errockerguy 21 wrote on November 26 2003, 12:00 am

dude u left out a hole part

0 reply
DeMoNhUnTeRuLeS 330 wrote on July 8 2006, 10:58 am

the intro goes like this
------------------------------------------------------
------------------------------------------------------
------------------------------------------------------
-----------------------------------7/8---7/8---7/8----
-----------------------------------7/8---7/8---7/8----
---0-0-0-0-0-0-0-0-0-0-0-0-0-0-0-5-----X-----X--------
PM ...............................

+2 reply
wild52 392 wrote on July 6 2009, 11:14 am

intro goes like this actually
------------------------------------------------------
--------------------------------------------------
--------------------------------------------------
---------------------------------7/8--7/8--7/8----
---------------------------------7/8--7/8--7/8----
---0-0-0-0-0-0-0-0-0-0-0-0-0-0-0------------------
PM .............................

guest
You may want to rate the tab now too:
select rating
Please do not post tabs as comments. Select "correction" instead!