Oops, an error
Loading. Please wait.

Damage Inc Tab

version 2
version 2

Whole song

Interactive

117,357 views 216 this week
36 commentsread comments
1 2 3 4 5
excellent!
x 49
add to favorites
launch autoscroll
font size
0
reset
how to read this tab
guitar tuner
Autoscroll
slow
fast
+/-
esc
set tempo
stop
Help us to improve Ultimate-Guitar.com Take our survey!
×
Author
[Intro]

e|--5------3------|----------------|----------------|----------------|
B|----------------|--3------5------|--7------7------|--8------3------|
G|--2------4------|--4------6------|--7------4------|--5------7-p-0--|
D|----------------|----------------|----------------|----------------|
A|----------------|----------------|----------------|----------------|
E|----------------|----------------|----------------|----------------|
 volume swells, with heavy echo

e|--5------3------|----------------|-------------|----------------|
B|----------------|--3------5-p-3--|--7p5p3--7---|--8p7h8p7-3p0---|
G|--2------4------|--4------6-p-2--|--7------4---|--5-------7p0---|
D|----------------|----------------|-------------|----------------|
A|----------------|----------------|-------------|----------------|
E|----------------|----------------|-------------|----------------|

e|--5------3------|----------------|-----------|--------------|
B|----------------|--3------5-p-3--|--7p3—7p3--|--8p5h7p4--3--|
G|--2------4------|--4------6-p-2--|--7----4---|--5p2h4p2--7--|
D|----------------|----------------|-----------|--------------|
A|----------------|----------------|-----------|--------------|
E|----------------|----------------|-----------|--------------|

e|------------|--------------------|------------|--------------------|
B|------------|--------------------|------------|--------------------|
G|------------|--------------------|------------|--------------------|
D|--2----2----|--2----2---3--3--3--|--2----2----|--2----2---3--3--3--|
A|--2----2----|--2----2---3--3--3--|--2----2----|--2----2---3--3--3--|
E|--0----0----|--0----0---1--1--1--|--0----0----|--0----0---1--1--1--|
                                           
e|--------------|------------------|--------------|--------------||
B|--------------|------------------|--------------|--------------||
G|--------------|------------------|--------------|--------------||
D|--2--2--2--2--|--2--2--2--3-3-3--|--2--2--2--2--|--2--2--2--2--||
A|--2--2--2--2--|--2--2--2--3-3-3--|--2--2--2--2--|--2--2--2--2--||
E|--0--0--0--0--|--0--0--0--1-1-1--|--0--0--0--0--|--0--0--0--0--||

   Rhy Fig 1
e|-------------------------------------------------|------------------------|
B|-------------------------------------------------|------------------------|
G|-------------------------------------------------|------------------------|
D|-------------------------------------------------|-----7/8-----7/8-----7/-|
A|-------------------------------------------------|-----7/8-----7/8-----7/-|
E|-0--0--0--0--0--0--0--0--0--0--0--0--0--0--0--0--|--5-------X-------X-----|
   PM............................................|
 
e|-------------------------------------------------|------------------------|
B|*------------------------------------------------|------------------------|
G|-------------------------------------------------|------------------------|
D|--/8---------------------------------------------|-----7/8-----7/8-----7/-|
A|*-/8---------------------------------------------|-----7/8-----7/8-----7/-|
E|-------0--0--0--0--0--0--0--0--0--0--0--0--0--0--|--5-------X-------X-----|
         PM......................................|

e|------------------------------------------------|------------------------|
B|------------------------------------------------|------------------------|
G|------------------------------------------------|------------------------|
D|-/8---------------------------------------------|-----7/8-----7/8-----7/-|
A|-/8---------------------------------------------|-----7/8-----7/8-----7/-|
E|------0--0--0--0--0--0--0--0--0--0--0--0--0--0--|--5-------X-------X-----|
       PM......................................|
                                                   ________________________
                                                  |1.
e|------------------------------------------------|------------------------|
B|------------------------------------------------|------------------------|
G|------------------------------------------------|------------------------|
D|-/8---------------------------------------------|-----5\4-----5\4-----5\-|
A|-/8---------------------------------------------|-----5\4-----5\4-----5\-|
E|------2--2--2--2--2--2--2--2--2--2--2--2--2--2--|--3-------X-------X-----|       
       PM......................................|
    _________________________________________________________________________
                                                                             |
e|------------------------------------------------|-------------------------||
B|------------------------------------------------|------------------------*||
G|------------------------------------------------|-------------------------||
D|-\4---------------------------------------------|-----7/8-----7/8-----7/--||
A|-\4---------------------------------------------|-----7/8-----7/8-----7/-*||
E|------0--0--0--0--0--0--0--0--0--0--0--0--0--0--|--5-------X-------X------||
       PM......................................|
  ________________________
 |2.                                   end Rhy Fig 1
e|------------------------|------------|------------|
B|------------------------|------------|------------|
G|------------------------|--4---------|------------|
D|-----5\4-----5\4-----5--|--4----5----|--7----5----|
A|-----5\4-----5\4-----5--|--2----5----|--7----5----|
E|--3-------X-------X-----|-------3----|--5----3----|

e|--------------------------------------------------|-------------|
B|--------------------------------------------------|-------------|
G|--------------------------------------------------|-------------|
D|--------------------------------------------------|--4----------|
A|--4--4--4--4--4--4--4--4--4--4--4--4--4--4--4--4--|--4----------|
E|--2--2--2--2--2--2--2--2--2--2--2--2--2--2--2--2--|--2----------|
   PM............................................|

    Rhy Fig 2 
e|---------------------------|---------------------------|
B|*--------------------------|---------------------------|
G|---------------------------|---------------------------|
D|---------------------------|---------------------------|
A|*-8\5----------------------|--8\5----------------------|
E|--6\3--0-0-0--0--0--0-0-0--|--6\3--0-0-0--0--0--0-0-0--| 
         PM................|         . . . . . . . . . .
                                             end Rhy Fig 2

e|---------------------------|----------------------------||-----------|
B|---------------------------|---------------------------*||-----------|
G|---------------------------|----------------------------||-----------|
D|---------------------------|----------------------------||-----------|
A|--8\5----------------------|--8\5----------------------*||----8------|
E|--6\3--0-0-0--0--0--0-0-0--|--6\3--1-1-1--0--0--0-0-0---||----6------|
                                    PM................|         


[Verse]

Rhy Fig 2 1 ¾ times

 Little fill
e|-----------------------------------------|
B|-----------------------------------------|
G|-----------------------------------------|
D|-----------------------------------------|
A|-----------------------------------------|
E|-10-10-10-10-10-10-10-10-6-6-6-6-6-6-6-6-|
PM........................................|         

Rhy Fig 2 1 ¾ times
Little fill


[Chorus]

e|----------|------------|-------------------------------------------------| 
B|----------|------------|-------------------------------------------------| 
G|4---------|------------|------------------------------------------------0| 
D|4----5----|--7----5----|0-4--4--4--4--4--4--4--4--4--4--4--4--4--4--4--40|  
A|2----5----|--7----5----|0-4--4--4--4--4--4--4--4--4--4--4--4--4--4--4--4-|
E|-----3----|--5----3----|--2--2--2--2--2--2--2--2--2--2--2--2--2--2--2--2-| 
                          PM............................................|

e|----------|------------|-------------------------------------------------| 
B|----------|------------|-------------------------------------------------| 
G|4---------|------------|------------------------------------------------0| 
D|4----5----|--7----5----|0-4--4--4--4--4--4--4--4--4--4--4--4--4--4--4--40|  
A|2----5----|--7----5----|0-4--4--4--4--4--4--4--4--4--4--4--4--4--4--4--4-|
E|-----3----|--5----3----|--2--2--2--2--2--2--2--2--2--2--2--2--2--2--2--2-| 
                          PM............................................|

   After Chorus 1 st time
e|------------|-------------------|--------------|--------------||
B|------------|-------------------|--------------|--------------||
G|------------|-------------------|--------------|--------------||
D|--2----2----|--2----2--3--3--3--|--2--2--2--2--|--2--2--2--2--||
A|--2----2----|--2----2--3--3--3--|--2--2--2--2--|--2--2--2--2--||
E|--0----0----|--0----0--1--1--1--|--0--0--0--0--|--0--0--0--0--||

 2nd time
e|-------------------------------------------------| 
B|-------------------------------------------------| 
G|-------------------------------------------------| 
D|-4--4--4--4--4--4--4--4--4--4--4--4--4--4--4--4--| 
A|-4--4--4--4--4--4--4--4--4--4--4--4--4--4--4--4--|
E|-2--2--2--2--2--2--2--2--2--2--2--2--2--2--2--2--| 
PM............................................|

 Then repeat verse and chorus
                                  Ending 1-3
e|------------------------------|---------------------------|
B|*-----------------------------|--------------------------*|
G|------------------------------|---------------------------|
D|------------------------------|---------------------------|
A|*-------7-7------8------5-----|--7-7-----8-----7-7-----8-*|
E|--0--0-------0------0------0--|-------0-----0-------0--6--|
 
  4th ending
e|------------------------|
B|------------------------|
G|------------------------|
D|----------------------4-|
A|-7-7-----3------5-----2-|
E|-----0------0------0----|
 
 Rhy fig 3                                Ending 1-3
e|------------------------------|---------------------------|
B|*-----------------------------|--------------------------*|
G|------------------------------|---------------------------|
D|------------------------------|---------------------------|
A|*-------7-7------8------5-----|--7-7-----8-----7-7-----8-*|
E|--0--0-------0------0------0--|-------0-----0-------0--6--|
    pm--       -      -      -

  4th ending           end rhy fig 3
e|------------------------|
B|------------------------|
G|------------------------|
D|----------------------4-|
A|-7-7-----3------5-----2-|
E|-----0------0------0----|

play rhy fig 3 again


[Solo]

(the timing is screwed up in places but you can figure it out)

e|--15p12--12--15--15p14--12--15--15p14--12--15--15p14--12--12--| 
B|--------------------------------------------------------------|
G|--------------------------------------------------------------|
D|--------------------------------------------------------------|
A|--------------------------------------------------------------|
E|--------------------------------------------------------------|

e|--15p14--12--15--15p14--12--15--15p14--12--15--15p14--12--15--|
B|--------------------------------------------------------------|
G|--------------------------------------------------------------|
D|--------------------------------------------------------------|
A|--------------------------------------------------------------|
E|--------------------------------------------------------------|


e|--15--15--15--15--15--14p12--15--15--15--15--15p14p12--12--|
B|-----------------------------------------------------------|
G|-----------------------------------------------------------|
D|-----------------------------------------------------------|
A|-----------------------------------------------------------|
E|-----------------------------------------------------------|


e|--15--14--12--12--15--14--12--15-b17--------------14--|
B|----------------------------------------------15------|
G|-----------------------------------------/16----------|
D|------------------------------------------------------|
A|------------------------------------------------------|
E|------------------------------------------------------|

e|--17--15--14--15p14--15p14----14--X-------|
B|---------------------------14--------17\--|
G|------------------------------------------|
D|------------------------------------------|
A|------------------------------------------|
E|------------------------------------------|

e|-------------------------------------|-----------------------------------|
B|15\14-12-14-12\10h12-10\9--10p9------|----10--10p9---------10--10p9------|
G|---------------------------------11--|--9-----------11--9------------11--|
D|-------------------------------------|-----------------------------------|
A|-------------------------------------|-----------------------------------|
E|-------------------------------------|-----------------------------------|

e|-----------------------------------|------------------------------------|
B|-----10--10p9---------10--10p9-----|------12--12p10p9------12--12p10p9--|
G|--9------------11--9------------9--|--11---------------11---------------|
D|-----------------------------------|------------------------------------|
A|-----------------------------------|------------------------------------|
E|-----------------------------------|------------------------------------|

e|---9-9------------9-9-------------|-----------------------------------|
B|-------12p10-----------12p10------|------12-12p10p9------12--12p10-9--|
G|11----------11-11-------------11--|--11--------------11---------------|
D|----------------------------------|-----------------------------------|
A|----------------------------------|-----------------------------------|
E|----------------------------------|-----------------------------------|

e|----9-9--------------9-9------------|-12b14--r12-b14--r12--9--9h12-12p9--9-|
B|---------12p10------------12p10-----|--------------------------------------|
G|-11------------11-11-------------11-|--------------------------------------|
D|------------------------------------|--------------------------------------|
A|------------------------------------|--------------------------------------|
E|------------------------------------|--------------------------------------|

e|--12p9--9--9--12--9---------9--12--9---------9--12p9----------|
B|---------------------12b14------------12b14-----------(12)----|
G|--------------------------------------------------------------|
D|--------------------------------------------------------------|
A|--------------------------------------------------------------|
E|--------------------------------------------------------------|

e|------------------------------------------------|
B|--10p7--0--11p8--0--0--12p9--0--0--13p10--0--0--|
G|------------------------------------------------|
D|------------------------------------------------|
A|------------------------------------------------|
E|------------------------------------------------|

e|------------------------------------------------------|
B|--14p11--0--0--15p12--0--0--16p13--0--0--17p14--0--0--|
G|------------------------------------------------------|
D|------------------------------------------------------|
A|------------------------------------------------------|
E|------------------------------------------------------|

     UB      UB      UB       UB      UB
e|----12------12------12-------12------12----------|---------------------14--|
B|-15b17---15b17---15b17----15b17---15b17--r15p12--|--13-~-~--------/15------|
G|-------------------------------------------------|-------------------------|
D|-------------------------------------------------|-------------------------|
A|-------------------------------------------------|-------------------------|
E|-------------------------------------------------|-------------------------|

e|--15--17--17--17b19--17b19-r17p14--|--15--~--~--~--14--15--|
B|-----------------------------------|-----------------------|
G|-----------------------------------|-----------------------|
D|-----------------------------------|-----------------------|
A|-----------------------------------|-----------------------|
E|-----------------------------------|-----------------------|

e|-17-15-14-15p14-15p14----14---------------------17-----------------|
B|----------------------17----17-14-15p14------15--------------------|
G|------------------------------------------16--------14--14--16b18--|
D|-------------------------------------------------------------------|
A|-------------------------------------------------------------------|
E|-------------------------------------------------------------------|

e|-------------------------------------------------------------17b19-|
B|-14-17p14----14-17p14----14-17p14----14-17p14-17b19---r17p14-------|
G|----------16----------16----------16-------------------------------|
D|-------------------------------------------------------------------|
A|-------------------------------------------------------------------|
E|-------------------------------------------------------------------|

        +       o      +          o       +
e|-------------------------|------------------------|
B|-----15------15-----15---|-----15------15---------|
G|--14b16---14b16--14b16---|--14b16---14b16---------|
D|-------------------------|------------------------|
A|-------------------------|------------------------|
E|-------------------------|------------------------|
 w/ wha  (+=treble  o=bass)

e|--15--15--15--15--15--15--15--12--15--15--15--15--15--15p12--12--|
B|-----------------------------------------------------------------|
G|-----------------------------------------------------------------|
D|-----------------------------------------------------------------|
A|-----------------------------------------------------------------|
E|-----------------------------------------------------------------|

e|--15--15--15--12--15--15--12--15--15b17-~-~-----------|
B|-----------------------------------------------10/12--|
G|------------------------------------------------------|
D|------------------------------------------------------|
A|------------------------------------------------------|
E|------------------------------------------------------|

e|--10--10--12--12-/14--14--15--15--/17---15--15--17--17/--|
B|---------------------------------------------------------|
G|---------------------------------------------------------|
D|---------------------------------------------------------|
A|---------------------------------------------------------|
E|---------------------------------------------------------|

e|--/19--19--19--17--17--17--19--19-/20--20--20--19--19--19--20--20/--|
B|--------------------------------------------------------------------|
G|--------------------------------------------------------------------|
D|--------------------------------------------------------------------|
A|--------------------------------------------------------------------|
E|--------------------------------------------------------------------|

e|--/22--22--20--19--22--20--18--18--21-19-17-17\20-18-16-16\19-17--|
B|------------------------------------------------------------------|
G|------------------------------------------------------------------|
D|------------------------------------------------------------------|
A|------------------------------------------------------------------|
E|------------------------------------------------------------------|

e|--15-15\18-16-14-14\17-15-13-13\16p14p12\15p13p12\14p12p10--\--|
B|---------------------------------------------------------------|
G|---------------------------------------------------------------|
D|---------------------------------------------------------------|
A|---------------------------------------------------------------|
E|---------------------------------------------------------------|

     T       T       T       T       T       T       T       T
e|-------------------------------------------------------------------|
B|0--12p10p7-12p10p7-13p10p7-13p10p7-14p7h10-14p7h10-15p7h10-15p7h10-|
G|-------------------------------------------------------------------|
D|-------------------------------------------------------------------|
A|-------------------------------------------------------------------|
E|-------------------------------------------------------------------|

     T       T       T       T       T       T       T
e|-------------------------------------------------------|
B|--16p7h10-16p7h10-16p7h10-16p7h10-16p7h10-16p7h10-16\--|
G|-------------------------------------------------------|
D|-------------------------------------------------------|
A|-------------------------------------------------------|
E|-------------------------------------------------------|

e|------------|------------|------------------------------------------|
B|------------|------------|------------------------------------------|
G|--4---------|------------|------------------------------------------|
D|--4----5----|--7----5----|------------------------------------------|
A|--2----5----|--7----5----|--4----4--4----4--4----5---5---5----5--5--|
E|-------3----|--5----3----|--2----2--2----2--2----3---3---3----3--3--|
                                 PM...........|      PM............|

e|-----------------------------------------|
B|-----------------------------------------|
G|-----------------------------------------|
D|-----------------------------------------|
A|--7----7--7----7--7---8----8--8----8--8--|
E|--5----5--5----5--5---6----6--6----6--6--|
       PM...........|      PM...........|

e|------------------------------|---------------------------|
B|*-----------------------------|---------------------------|
G|------------------------------|---------------------------|
D|------------------------------|---------------------------|
A|*-------7-7------8------5-----|--7-7-----8-----7-7-----8--|
E|--0--0-------0------0------0--|-------0-----0-------0--6--|
   PM...|     PM     PM      PM         PM    PM      PM
                                 ____________________________
                                |1.                          |
e|------------------------------|----------------------------||
B|------------------------------|---------------------------*||
G|------------------------------|----------------------------||
D|------------------------------|------------------------7---||
A|--------7-7------8------5-----|--7-7-----8-----7-7-----5--*||
E|--0--0-------0------0------0--|-------0-----0-------0------||
  PM...|     PM     PM     PM         PM    PM      PM

  ___________________________
 |2.                         |
e|---------------------------|------------|------------|
B|---------------------------|------------|------------|
G|---------------------------|--4---------|------------|
D|------------------------4--|--4----5----|--7----5----|
A|--7-7-----3-----5-5-----2--|--2----5----|--7----5----|
E|-------0-----0-------0-----|-------3----|--5----3----|
       PM    PM      PM
                                         
e|--------------------------------------------------|
B|--------------------------------------------------|
G|--------------------------------------------------|
D|--------------------------------------------------|
A|--4--4--4--4--4--4--4--4--4--4--4--4--4--4--4--4--|
E|--2--2--2--2--2--2--2--2--2--2--2--2--2--2--2--2--|

Play verse then first two bars of chorus

e|----------------------|----------------------|
B|----------------------|----------------------|
G|----------------------|----------------------|
D|----4----4------------|----------------------|
A|----2----2----5----5--|----7----7----5----5--|
E|--------------3----3--|----5----5----3----3--|

e|--------------------------------------------------|--------------------|
B|--------------------------------------------------|--------------------|
G|--------------------------------------------------|--------------------|
D|--------------------------------------------------|--------------------|
A|--4--4--4--4--4--4--4--4--4--4--4--4--4--4--4--4--|--4-----------------|
E|--2--2--2--2--2--2--2--2--2--2--2--2--2--2--2--2--|--2-----------------|

e|------------|-----------------|-----------------|
B|------------|-----------------|-----------------|
G|------------|-----------------|-----------------|
D|------------|-----------------|-----------------|
A|--2----2----|--2----2--3-3-3--|--3--------------|
E|--0----0----|--0----0--1-1-1--|--1--------------|



************************************

| (n)  Ghost note
| h    Hammer-on
| p    Pull-off
| r    Release
| b    Bend
| /    Slide up
| \    Slide down
| ~    Vibrato
| PM   Palm mute

************************************
Suggest correction
comments
print report bad tab
36 comments total. Showing first comments. show 1 bad comment
+1 reply
Oswald 10 wrote on November 13 2003, 12:00 am

Dame!!! Hetfield can play fukkin fast!!!!

+2 reply
Legend88 10 wrote on July 30 2004, 12:00 am

The rhythem guitar is fast, and James plays the rhythem YOU PRICK!.....such a dumbass

guest
You may want to rate the tab now too:
select rating
Wanna post a correction for this tab? Suggest correction