Oops, an error
Loading. Please wait.

Dirty Window Tab

version 4
version 4
304 views 1 this week
no commentswrite comment
1 2 3 4 5
please rate
add to favorites
launch autoscroll
font size
0
reset
how to read this tab
guitar tuner
Autoscroll
slow
fast
+/-
esc
set tempo
stop
Help us to improve Ultimate-Guitar.com Take our survey!
×
-------------------------------------------------------------------------------
                             Dirty Window (correct) - Metallica
-------------------------------------------------------------------------------

Tabbed by:Shane Dolmovic
Email:sdolmovic@hotmail.com

| /  slide up
| \  slide down
| h  hammer-on
| p  pull-off
| ~  vibrato
| +  harmonic
| x  Mute note

Tuning: 1 1/2 steps down (C#,F#,B#,D#,G#,c#)

The 6 drum sets start off

Riff 1
c#|---------------------------------------------------------------------------|
G#|---------------------------------------------------------------------------|
D#|---------------------------------------------------------------------------|
B#|---------------------------------------------------------------------------|
F#|------------------------------------------7--------------------------------|
C#|--0--3--5---0--3--5---0--3--5---0--3--5------6--5--------------------------|

Riff 2
c#|---------------------------------------------------------------------------|
G#|---------------------------------------------------------------------------|
D#|---------------------------------------------------------------------------|
B#|--5-------5---5/7---7---7--------------------------------------------------|
F#|--5-------5---5/7---7---7--------------------------------------------------|
C#|--3-------3---3/5---5---5--------------------------------------------------|

Riff 3
c#|---------------------------------------------------------------------------|
G#|---------------------------------------------------------------------------|
D#|---------------------------------------------------------------------------|
B#|---------------------------------------------------------------------------|
F#|------------------------------------------7--------------------------------|
C#|--0--3--5---0--3--5---0--3--5---0--3--5------6--5--------------------------|
     x  x  x   x  x  x   x  x  x   x  x  x   x  x  x

Bridge
c#|---------------------------------------------------------------------------|
G#|---------------------------------------------------------------------------|
D#|---------------------------------------------------------------------------|
B#|--2--5--7--2----2--5--7--8~------------------------------------------------|
F#|--2--5--7--2----2--5--7--8~------------------------------------------------|
C#|--0--3--5--0----0--3--5--6~------------------------------------------------|

Bridge 2
c#|---------------------------------------------------------------------------|
G#|---------------------------------------------------------------------------|
D#|---------------------------------------------------------------------------|
B#|--5--8-10--5----5--8-10-11~---5--8-10--5---5--5-10----5---8--10------------|
F#|--5--8-10--5----5--8-10-11~---5--8-10--5---5--5-10----5---8--10------------|
C#|--3--6--8--3----3--6--8--9~---3--6--8--3---3--6--8----3---6---8------------|
                                              x  x  x    x   x   x
RIFF 4
c#|---------------------------------------------------------------------------|
G#|---------------------------------------------------------------------------|
D#|---4---------4--2------5--4------------------------------------------------|
B#|---2------5--x--0----------------------------------------------------------|
F#|----------x--x--------------------------------------------7----------------|
C#|----------0--3-----------------0--3--5--0--3--5--0--3--5-----6--5----------|

RIFF 5
c#|---------------------------------------------------------------------------|
G#|---------------------------------------------------------------------------|
D#|--------------------------9------------------------------------------------|
B#|--2-5-7-2--2-5-7-2--2-5-7-9-8-7-2-5-7-2------------------------------------|
F#|--2-5-7-2--2-5-7-2--2-5-7-7-8-7-2-5-7-2------------------------------------|
C#|--0-3-5-0--0-3-5-0--0-3-5---6-5-0-3-5-0------------------------------------|

c#|---------------------------------------------------------------------------|
G#|---------------------------------------------------------------------------|
D#|--------------------------9-----------9------------------------------------|
B#|--2-5-7-2--2-5-7-2--2-5-7-9-8-7-2-5-7-9-8-7--------------------------------|
F#|--2-5-7-2--2-5-7-2--2-5-7-7-8-7-2-5-7-7-8-7--------------------------------|
C#|--0-3-5-0--0-3-5-0--0-3-5---6-5-0-3-5---6-5--------------------------------|

Outro
c#|---------------------------------------------------------------------------|
G#|---------------------------------------------------------------------------|
D#|---------------------------------------------------------------------------|
B#|---2-2-2-2-2-2--2-2--2-----------------------------------------------------|
F#|---2-2-2-2-2-2--2-2--2-----------------------------------------------------|
C#|---0-0-0-0-0-0--0-0--0-----------------------------------------------------|


[RIFF 1] X5
[RIFF 2]
[RIFF 1] X4
I see my reflection in the window
It looks different, so different than what you see
Projecting judgment on the world

[RIFF 2]
This house is clean babe
This house is clean

[RIFF 3] X2
[BRIDGE] X3
Am I who I think I am?
Am I who I think I am?
Am I who I think I am?

[BRDGE 2]X1
Look out my window and see it's gone wrong
Court is in session and I slam my gavel down

[RIFF 1] X2
[RIFF 4] X2
I'm judge and I'm jury and I'm executioner too
I'm judge and I'm jury and I'm executioner too

[RIFF 5]
Projector
Protector
Rejector
Infector
Projector
Rejector
Infector
Injector
Defector
Rejector

[OUTRO] X2
[RIFF 1] X4
I see my reflection in the window
This window clean inside, dirty on the out
I'm looking different than me

[RIFF 2]
This house is clean babe
This house is clean

[RIFF 3] X2
[BRIDGE} X3
Am I who I think I am?
Am I who I think I am?
Oh am I who I think I am?

[BRDGE 2}
I look my window and see it's gone wrong
My court is in session and now I slam my gavel down

[RIFF 1] X2
[RIFF 4] X2
I'm judge and I'm jury and I'm executioner too
I'm judge and I'm jury and I'm executioner too

[RIFF 5]
Projector
Protector
Rejector
Infector
Projector
Rejector
Infector
Injector
Defector
Rejector
Dejector

[OUTRO] X18
[RIFF 1] X2
[RIFF 4] X2
I'm judge and I'm jury and I'm executioner too
Oh I'm judge and I'm jury and I'm executioner too

[RIFF 5]
Projector
Protector
Rejector
Infector
Projector
Rejector
Infector
Injector
Defector
Rejector

[OUTRO] X24
I drink from the cup of denial
I'm judging the world from my throne
I drink from the cup of denial
I'm judging the world from my throne

Thats it! enjoy! easy song to play and one of the best from Metallica's new CD.
if u have any questions or suggestions about my tab email at sdolmovic@hotmail.com
===============================================================================
Suggest correction
Give kudos to tab author, rate the tab!
1 2 3 4 5
comments
print report bad tab
guest
You may want to rate the tab now too:
select rating
Wanna post a correction for this tab? Suggest correction