Oops, an error
Loading. Please wait.

Disposable Heroes Guitar Pro

version 2
4,533 views 6 this week
2 commentsread comments
1 2 3 4 5
worth learning
x 5
add to favorites
guitar tuner
Autoscroll
slow
fast
+/-
esc
set tempo
stop
Filesize
Instruments
91 Kb
rhythm guitar, lead guitar, bass
"Disposable Heroes"
demo version
Play now

or get full version for Free

Get full version now!
To learn and play this song
in Tab Pro, start free trial
Start free trial

or get $10 off Welcome Bonus

Get welcome bonus
Get access to Tab Pro version of “Disposable Heroes”!
Tab Pro is a premium guitar tab service, available on PC, Mac, iOS and Android
START FREE TRIAL
To download “Disposable Heroes” Guitar Pro tab click button below
Please note that you must have Guitar Pro software installed on your
computer in order to view this file.
comments
report bad tab
2 comments total.
0 reply
thebigredjj10 wrote on August 22 2008, 08:41 pm

Change the intro, Kirk Hammett's part from
---------------------------------------|
---------------------------------------|
---------------------------------------|
---9--9--9--9--9--9--11----12----11----|
---7--7--7--7--7--7---9----10-----9----|
---------------------------------------|
to
---------------------------------------|
---------------------------------------|
---9--9--9--9--9--9--11----12----11----|
---------------------------------------|
---7--7--7--7--7--7---9----10-----9----|
---------------------------------------|
Make it octaves instead of 5ths, it sounds better that way.

0 reply
BassShredder wrote on July 2 2009, 05:57 pm

horrible

I want to post or [tab]
guest
You may want to rate the tab now too:
select rating
Please do not post tabs as comments. Select "correction" instead!