Oops, an error
Loading. Please wait.

Disposable Heroes Tab

version 3
version 3
130,363 views 207 this week
26 commentsread comments
1 2 3 4 5
excellent!
x 47
add to favorites
launch autoscroll
font size
0
reset
how to read this tab
guitar tuner
Autoscroll
slow
fast
+/-
esc
set tempo
stop
Help us to improve Ultimate-Guitar.com Take our survey!
×
Band- Metallica
Song- Disposable Heroes

Gtr I (E A D G B E) - 'James Hetfield - Rhythm w/dist'
Gtr II (E A D G B E) - 'Kirk Hammett - Lead w/dist'
Gtr III (E A D G B E) - 'Extra'

[Intro]

    Fast Rock Q=206
   6/4
    Gtrs I, II
    PM--------|            PM--------|            PM--------|
    E E E E E E Q  Q  Q    E E E E E E Q  Q  Q    E E E E E E Q  Q  Q

e||-----------------------|----------------------|-----------------------|
B||o----------------------|----------------------|-----------------------|
G||-----------------------|----------------------|-----------------------|
D||-----------------------|----------------------|-----------------------|
A||o-------------4--5--4--|-------------5--7--4--|-------------4--5--4---|
E||--0-0-0-0-0-0-2--3--2--|-0-0-0-0-0-0-3--5--2--|-0-0-0-0-0-0-2--3--2---|


  Gtr II
  PM--------------|
  E E E E E E E E E Q.

e|-------------------------||-|
B|------------------------o||-|
G|-------------------9-----||-|
D|-------------------9-----||-|
A|-------------------7----o||-|
E|-0-0-0-0-0-0-0-0-0-------||-|
|
| Gtr I
| PM--------------|
| E E E E E E E E E Q.

e|-------------------------||-|
B|------------------------o||-|
G|-------------------9-----||-|
D|-------------------9-----||-|
A|-------------------7----o||-|
E|-0-0-0-0-0-0-0-0-0-------||-|


     H.            Q   Q   Q    H.            Q   Q   Q
e||---------------------------|--------------------------|
B||o--------------------------|--------------------------|
G||--9------------------------|-9------------------------|
D||--9------------11--12--11--|-9------------12--14--11--|
A||o-7-------------9--10---9--|-7------------10--12---9--|
E||---------------------------|--------------------------|
|
|   PM---------|               PM---------|

 |   E  E E E E E  Q   Q   Q    E  E E E E E  Q   Q   Q
e||---------------------------|--------------------------|
B||o--------------------------|--------------------------|
G||---------------------------|--------------------------|
D||---------------------------|--------------------------|
A||o---------------4---5---4--|---------------5---7---4--|
E||--0--0-0-0-0-0--2---3---2--|-0--0-0-0-0-0--3---5---2--|


                             1.
   H.            Q   Q   Q    H.           +Q.      Q.
e|--------------------------|-----------------------------||
B|--------------------------|----------------------------o||
G|-9------------------------|-9------------(9)-----12-----||
D|-9------------11--12--11--|-9------------(9)-----12-----||
A|-7-------------9--10---9--|-7------------(7)-----10----o||
E|--------------------------|-----------------------------||
|
| PM---------|               PM-----------------|
| E  E E E E E  Q   Q   Q    E  E E E E E  E  E E  Q.

e|--------------------------|-----------------------------||
B|--------------------------|----------------------------o||
G|--------------------------|-----------------------9-----||
D|--------------------------|-----------------------9-----||
A|---------------4---5---4--|-----------------------7----o||
E|-0--0-0-0-0-0--2---3---2--|-0--0-0-0-0-0--0--0-0--------||


  2.
   H.           +Q.     Q.

e|----------------------------|
B|----------------------------|
G|-9------------(9)-----9-----|
D|-9------------(9)-----9-----|
A|-7------------(7)-----7-----|
E|----------------------------|
|
| PM-----------------|
| E  E E E E E  E  E E Q.

e|----------------------------|
B|----------------------------|
G|----------------------9-----|
D|----------------------9-----|
A|----------------------7-----|
E|-0--0-0-0-0-0--0--0-0-------|


   Q=188
                     4/4
   Gtrs I, II
                      PM---------------------
   +W.                E S S E E E E S S S S
e|----------------||------------------------|
B|----------------||o-----------------------|
G|-(9)------------||------------------------|
D|-(9)------------||------------------------|
A|-(7)------------||o-----------------------|
E|----------------||--0-0-0-0-0-0-0-0-0-0-0-|
                  |-Rhy Fig 1

 ---------------------------------------------|
  E S S E E E E S S S S   E S S E E E E S S S S

e|-----------------------|------------------------|
B|-----------------------|------------------------|
G|-----------------------|------------------------|
D|-----------------------|------------------------|
A|-----------------------|------------------------|
E|-0-0-0-0-0-0-0-0-0-0-0-|-0-0-0-0-0-0-0-0-0-0-0--|


  Gtr II
  PM------------------|     |-w/Rhy Fig 1 x2
  E S S E E E E S S S S  4x      W                        +H.              Q

e|------------------------||-||-------------------------|---------------------------|
B|-----------------------o||-||o------------------------|---------------------------|
G|------------------------||-||--12---------------------|-(12)-------------14S======|
D|------------------------||-||--12---------------------|-(12)-------------14S======|
A|-----------------------o||-||o-10---------------------|-(10)-------------12S======|
E|-0-0-0-0-0-0-0-0-0-0-0--||-||-------------------------|---------------------------|
|
| Gtr I
| PM--------------------|
| E S S E E E E S S S S  4x

e|------------------------||
B|-----------------------o||
G|------------------------||
D|------------------------||
A|-----------------------o||
E|-0-0-0-0-0-0-0-0-0-0-0--||
           end Rhy Fig 1-|

    W                        +H.              Q
e|------------------------|------------------------------|
B|------------------------|------------------------------|
G|-11---------------------|-(11)-------------14S=========|
D|-11---------------------|-(11)-------------14S=========|
A|--9---------------------|--(9)-------------12S=========|
E|------------------------|------------------------------|



    W                        +H.              Q
e|------------------------|---------------------------|
B|------------------------|---------------------------|
G|-10---------------------|-(10)-------------12S======|
D|-10---------------------|-(10)-------------12S======|
A|--8---------------------|--(8)-------------10S======|
E|------------------------|---------------------------|



   W                       +W
e|-----------------------|--------------------------||
B|-----------------------|-------------------------o||
G|-9---------------------|-(9)----------------------||
D|-9---------------------|-(9)----------------------||
A|-7---------------------|-(7)---------------------o||
E|-----------------------|--------------------------||



    Faster Q=188
    Gtrs I, II
        PM------|   PM--------|
    E S S S S S S E S S S S S S

e||------------------------------|
B||o-----------------------------|
G||------------------------------|
D||--6---------------------------|
A||o-4-4-4-4-4-4-4-4-4-4-4-4-4-4-|
E||------------------------------|


    PM--------|   PM--------|
  E S S S S S S E S S S S S S  3x E E E E E E E E

e|------------------------------||-----------------|
B|-----------------------------o||-----------------|
G|------------------------------||-----------------|
D|-6----------------------------||---5p4---4p2-----|
A|-4-4-4-4-4-4-4-4-4-4-4-4-4-4-o||-0-----0-----5-4-|
E|------------------------------||-----------------|


                  PM------------------------------------------|
  |-3-| |-3-|
  Q Q Q Q Q Q     E S S E E E E S S S S   E S S E E E E S S S S  4x

e|-------------||------------------------|------------------------||
B|-------------||o-----------------------|-----------------------o||
G|-------7-6-4-||------------------------|------------------------||
D|-5-4-2-7-6-4-||------------------------|------------------------||
A|-5-4-2-5-4-2-||o-----------------------|-----------------------o||
E|-3-2-0-------||--0-0-0-0-0-0-0-0-0-0-0-|-0-0-0-0-0-0-0-0-0-0-0--||


[Verse 1/2/3]

    $
    PM------------------------------------------------------------------|
    E S S E E E E S S S S   E S S E E E E S S S S   E S S E E E E S S S S

e||------------------------|-----------------------|------------------------|
B||o-----------------------|-----------------------|------------------------|
G||------------------------|-----------------------|------------------------|
D||------------------------|-----------------------|------------------------|
A||o-----------------------|-----------------------|------------------------|
E||--0-0-0-0-0-0-0-0-0-0-0-|-0-0-0-0-0-0-0-0-0-0-0-|-3-3-3-3-3-3-3-3-3-3-3--|


   PM---------------------------------------------
   E S S E E E E S S S S   E S S E E E E S S S S
e|-----------------------|-----------------------|
B|-----------------------|-----------------------|
G|-----------------------|-----------------------|
D|-----------------------|-----------------------|
A|-----------------------|-----------------------|
E|-2-2-2-2-2-2-2-2-2-2-2-|-0-0-0-0-0-0-0-0-0-0-0-|


 ---------------------------------------------|
  E S S E E E E S S S S   E S S E E E E S S S S

e|-----------------------|-----------------------|
B|-----------------------|-----------------------|
G|-----------------------|-----------------------|
D|-----------------------|-----------------------|
A|-----------------------|-----------------------|
E|-0-0-0-0-0-0-0-0-0-0-0-|-3-3-3-3-3-3-3-3-3-3-3-|


   PM---------------------------------------------
   E S S E E E E S S S S   E S S E E E E S S S S

e|-----------------------|-----------------------|
B|-----------------------|-----------------------|
G|-----------------------|-----------------------|
D|-----------------------|-----------------------|
A|-----------------------|-----------------------|
E|-7-7-7-7-7-7-7-7-7-7-7-|-0-0-0-0-0-0-0-0-0-0-0-|


 ---------------------------------------------|
  E S S E E E E S S S S   E S S E E E E S S S S

e|-----------------------|-----------------------|
B|-----------------------|-----------------------|
G|-----------------------|-----------------------|
D|-----------------------|-----------------------|
A|-----------------------|-----------------------|
E|-0-0-0-0-0-0-0-0-0-0-0-|-3-3-3-3-3-3-3-3-3-3-3-|


   PM---------------------------------------------
   E S S E E E E S S S S   E S S E E E E S S S S

e|-----------------------|-----------------------|
B|-----------------------|-----------------------|
G|-----------------------|-----------------------|
D|-----------------------|-----------------------|
A|-----------------------|-----------------------|
E|-2-2-2-2-2-2-2-2-2-2-2-|-0-0-0-0-0-0-0-0-0-0-0-|


 ---------------------------------------------|
  E S S E E E E S S S S   E S S E E E E S S S S

e|-----------------------|-----------------------|
B|-----------------------|-----------------------|
G|-----------------------|-----------------------|
D|-----------------------|-----------------------|
A|-----------------------|-----------------------|
E|-0-0-0-0-0-0-0-0-0-0-0-|-0-0-0-0-0-0-0-0-0-0-0-|


  PM------------------|        PM------|   PM--------|
  E S S E E E E S S S S    E S S S S S S E S S S S S S

e|-----------------------||-----------------------------|
B|-----------------------||-----------------------------|
G|-----------------------||-----------------------------|
D|-----------------------||-6---------------------------|
A|-----------------------||-4-4-4-4-4-4-4-4-4-4-4-4-4-4-|
E|-0-0-0-0-0-0-0-0-0-0-0-||-----------------------------|


                                3/4
     PM--------|   PM--------|       PM------|   PM|
   E S S S S S S E S S S S S S   E S S S S S S E S S
e|-----------------------------|---------------------|
B|-----------------------------|---------------------|
G|-----------------------------|---------------------|
D|-6---------------------------|-6-------------------|
A|-4-4-4-4-4-4-4-4-4-4-4-4-4-4-|-4-4-4-4-4-4-4-4-4-4-|
E|-----------------------------|---------------------|


                       4/4
      PM------|   PM|       PM------|   PM--------|
  E S S S S S S E S S   E S S S S S S E S S S S S S

e|---------------------|-----------------------------|
B|---------------------|-----------------------------|
G|---------------------|-----------------------------|
D|-4-------------------|-6---------------------------|
A|-2-2-2-2-2-2-2-2-2-2-|-4-4-4-4-4-4-4-4-4-4-4-4-4-4-|
E|---------------------|-----------------------------|


                                3/4
     PM--------|   PM--------|       PM------|   PM|
   E S S S S S S E S S S S S S   E S S S S S S E S S
e|-----------------------------|---------------------|
B|-----------------------------|---------------------|
G|-----------------------------|---------------------|
D|-6---------------------------|-6-------------------|
A|-4-4-4-4-4-4-4-4-4-4-4-4-4-4-|-4-4-4-4-4-4-4-4-4-4-|
E|-----------------------------|---------------------|


                       4/4
      PM------|   PM|       PM------|   PM--------|
  E S S S S S S E S S   E S S S S S S E S S S S S S

e|---------------------|-----------------------------|
B|---------------------|-----------------------------|
G|---------------------|-----------------------------|
D|-4-------------------|-6---------------------------|
A|-2-2-2-2-2-2-2-2-2-2-|-4-4-4-4-4-4-4-4-4-4-4-4-4-4-|
E|---------------------|-----------------------------|


                                3/4
     PM--------|   PM--------|       PM------|   PM|
   E S S S S S S E S S S S S S   E S S S S S S E S S
e|-----------------------------|---------------------|
B|-----------------------------|---------------------|
G|-----------------------------|---------------------|
D|-6---------------------------|-6-------------------|
A|-4-4-4-4-4-4-4-4-4-4-4-4-4-4-|-4-4-4-4-4-4-4-4-4-4-|
E|-----------------------------|---------------------|


                       4/4
      PM------|   PM|       PM------|   PM--------|
  E S S S S S S E S S   E S S S S S S E S S S S S S

e|---------------------|-----------------------------|
B|---------------------|-----------------------------|
G|---------------------|-----------------------------|
D|-4-------------------|-6---------------------------|
A|-2-2-2-2-2-2-2-2-2-2-|-4-4-4-4-4-4-4-4-4-4-4-4-4-4-|
E|---------------------|-----------------------------|


                                3/4
     PM--------|   PM--------|       PM------|   PM|
   E S S S S S S E S S S S S S   E S S S S S S E S S
e|-----------------------------|---------------------|
B|-----------------------------|---------------------|
G|-----------------------------|---------------------|
D|-6---------------------------|-6-------------------|
A|-4-4-4-4-4-4-4-4-4-4-4-4-4-4-|-4-4-4-4-4-4-4-4-4-4-|
E|-----------------------------|---------------------|


                         4/4
   Gtr II
       PM------|   PM|
   E S S S S S S E S S    Q     +E.     T T Q     +E.     T T
e|---------------------||-------------------------------------|
B|---------------------||-------------------------------------|
G|---------------------||-4-----(4)h====5p4S2-----(2)s====4h5-|
D|-4-------------------||-------------------------------------|
A|-2-2-2-2-2-2-2-2-2-2-||-------------------------------------|
E|---------------------||-------------------------------------|
|
| Gtr I
|     PM------|   PM|        PM--------|     PM----------|
| E S S S S S S E S S    E S S  S  S S S   E S S  S  S S S

e|---------------------||-------------------------------------|
B|---------------------||-------------------------------------|
G|---------------------||-------------------------------------|
D|-4-------------------||-4-----------------------------------|
A|-2-2-2-2-2-2-2-2-2-2-||-2-2-2--2--2-2-2---2-2-2--2--2-2-2---|
E|---------------------||-------------------------------------|


   Q     +E.     T T Q     +E.     T T
e|--------------------------------------|
B|--------------------------------------|
G|-4-----(4)h====5p4S2-----(2)s====4h5--|
D|--------------------------------------|
A|--------------------------------------|
E|--------------------------------------|
|
|     PM--------|     PM----------|
| E S S  S  S S S   E S S  S  S S S

e|--------------------------------------|
B|--------------------------------------|
G|--------------------------------------|
D|-4------------------------------------|
A|-2-2-2--2--2-2-2---2-2-2--2--2-2-2----|
E|--------------------------------------|


  3/4
                             \1                    |
                             ~~~~~~~~~~~~~~~~~~~~~~~~~
   Q     +E.     T T Q       Q      +Q        +E  +E
e|-------------------------|----------------------------|
B|-------------------------|----------------------------|
G|-4-----(4)h====5p4S2-----|-4------(4)-------(4)-(4)---|
D|-------------------------|----------------------------|
A|-------------------------|----------------------------|
E|-------------------------|----------------------------|
|
|     PM--------|     PM|        PM--------|      PM-|
| E S S  S  S S S   E S S   E  S S  S  S S S  E   S  S

e|-------------------------|----------------------------|
B|-------------------------|----------------------------|
G|-------------------------|----------------------------|
D|-4-----------------------|-2--------------------------|
A|-2-2-2--2--2-2-2---2-2-2-|-0--0-0--0--0-0-0--0---0--0-|
E|-------------------------|----------------------------|


  4/4
   Q     +E.     T T Q     +E.     T T   Q     +E.     T T Q     +E.     T T
e|-------------------------------------|----------------------------------------|
B|-------------------------------------|----------------------------------------|
G|-4-----(4)h====5p4S2-----(2)s====4h5-|-4-----(4)h====5p4S2-----(2)s====4h5----|
D|-------------------------------------|----------------------------------------|
A|-------------------------------------|----------------------------------------|
E|-------------------------------------|----------------------------------------|
|
|     PM--------|     PM----------|         PM--------|     PM----------|
| E S S  S  S S S   E S S  S  S S S     E S S  S  S S S   E S S  S  S S S

e|-------------------------------------|----------------------------------------|
B|-------------------------------------|----------------------------------------|
G|-------------------------------------|----------------------------------------|
D|-4-----------------------------------|-4--------------------------------------|
A|-2-2-2--2--2-2-2---2-2-2--2--2-2-2---|-2-2-2--2--2-2-2---2-2-2--2--2-2-2------|
E|-------------------------------------|----------------------------------------|


  3/4
                             \1                    |
                             ~~~~~~~~~~~~~~~~~~~~~~~~~
   Q     +E.     T T Q       Q      +Q        +E  +E

e|-------------------------|----------------------------|
B|-------------------------|----------------------------|
G|-4-----(4)h====5p4S2-----|-4------(4)-------(4)-(4)---|
D|-------------------------|----------------------------|
A|-------------------------|----------------------------|
E|-------------------------|----------------------------|
|
|     PM--------|     PM|        PM--------|      PM-|
| E S S  S  S S S   E S S   E  S S  S  S S S  E   S  S

e|-------------------------|----------------------------|
B|-------------------------|----------------------------|
G|-------------------------|----------------------------|
D|-4-----------------------|-2--------------------------|
A|-2-2-2--2--2-2-2---2-2-2-|-0--0-0--0--0-0-0--0---0--0-|
E|-------------------------|----------------------------|


[To Coda]

  4/4
   |-3-|
   Q Q Q Q  Q    E S S E E E E E E

e|-------------|--------------------|
B|-------------|--------------------|
G|-4-3-4-5--4--|--------------------|
D|-4-3-4-5--4--|-----------------5--|
A|-2-1-2-3--2--|-----------------5--|
E|-------------|-0-0-0-0-0-0-0-0-3--|
|
 | |-3-|
 | Q Q Q Q  Q    E S S E E E E E E
e|-------------|--------------------|
B|-------------|--------------------|
G|-4-3-4-5--4--|--------------------|
D|-4-3-4-5--4--|-----------------5--|
A|-2-1-2-3--2--|-----------------5--|
E|-------------|-0-0-0-0-0-0-0-0-3--|


   Gtrs I, II
   +H     +E  Q  E   +H     +E  Q  E   +H     +E  Q.     E S S E E E E E E
e|-----------------|-----------------|-----------------|-------------------|
B|-----------------|-----------------|-----------------|-------------------|
G|-----------------|-----------------|-----------------|-------------------|
D|-(5)----(5)-8--4-|-(4)----(4)-7--3-|-(3)----(3)-5----|-----------------5-|
A|-(5)----(5)-8--4-|-(4)----(4)-7--3-|-(3)----(3)-5----|-----------------5-|
E|-(3)----(3)-6--2-|-(2)----(2)-5--1-|-(1)----(1)-3----|-0-0-0-0-0-0-0-0-3-|


   +H     +E  Q  E   +H     +E  Q  E   +H     +E  Q.     E S S E E E E E E
e|-----------------|-----------------|-----------------|-------------------|
B|-----------------|-----------------|-----------------|-------------------|
G|-----------------|-----------------|-----------------|-------------------|
D|-(5)----(5)-8--4-|-(4)----(4)-7--3-|-(3)----(3)-5----|-----------------5-|
A|-(5)----(5)-8--4-|-(4)----(4)-7--3-|-(3)----(3)-5----|-----------------5-|
E|-(3)----(3)-6--2-|-(2)----(2)-5--1-|-(1)----(1)-3----|-0-0-0-0-0-0-0-0-3-|


   +H     +E  Q  E   +H     +E  Q  E   +H     +E  Q.     E S S E E E E E E
e|-----------------|-----------------|-----------------|-------------------|
B|-----------------|-----------------|-----------------|-------------------|
G|-----------------|-----------------|-----------------|-------------------|
D|-(5)----(5)-8--4-|-(4)----(4)-7--3-|-(3)----(3)-5----|-----------------5-|
A|-(5)----(5)-8--4-|-(4)----(4)-7--3-|-(3)----(3)-5----|-----------------5-|
E|-(3)----(3)-6--2-|-(2)----(2)-5--1-|-(1)----(1)-3----|-0-0-0-0-0-0-0-0-3-|


   +H     +E  Q  E   +H     +E  Q  E
e|-----------------|-----------------|
B|-----------------|-----------------|
G|-----------------|-----------------|
D|-(5)----(5)-8--4-|-(4)----(4)-7--3-|
A|-(5)----(5)-8--4-|-(4)----(4)-7--3-|
E|-(3)----(3)-6--2-|-(2)----(2)-5--1-|


                   7/8               2/4
                    PM------------|
  +H     +E  Q.     E S S E E E E E   E E Q

e|-----------------|-----------------|----------||
B|-----------------|-----------------|---------o||
G|-----------------|-----------------|----------||
D|-(3)----(3)-5----|-----------------|----------||
A|-(3)----(3)-5----|-----------------|-2-------o||
E|-(1)----(1)-3----|-0-0-0-0-0-0-0-0-|-0--------||


[Bridge]

 7/8                 4/4
  PM------------|        PM|     PM|
  E S S E E E E E     Q  E E E E E E

e|-----------------||-----------------|
B|-----------------||o----------------|
G|-----------------||-----------------|
D|-----------------||--2--------------|
A|-----------------||o-2------5h7-----|
E|-0-0-0-0-0-0-0-0-||--0--0-0-0---0-0-|


      PM|     PM|      PM|     PM|      PM|
   Q  E E E E E E   Q  E E E E E E   Q  E E E E Q   4x
e|----------------|----------------|----------------||
B|----------------|----------------|---------------o||
G|----------------|----------------|----------------||
D|----------------|-2--------------|----------------||
A|-5------4h7-----|-2------5h7-----|-5------4h7-2--o||
E|-0--0-0-0---0-0-|-0--0-0-0---0-0-|-0--0-0-0---0---||
                 |-Rhy Fig 2         end Rhy Fig 2-|


[Guitar Solo]

 w/Rhy Fig 2 x8
   Gtr II
    E      +E    +E       +E    Q        +E    E        +Q     S  S  E  E  E      +E    E
e|---------------------------------------------------|---------------------------------12-|
B|-15-----(15)--(15)-----(15)--15-------(15)--15-----|-(15)-------------------------------|
G|-14b16==(16)r-(14)b16==(16)r-14b16====(16)r-14b16==|=(16)r--14-12----12-14b16==(16)r----|
D|---------------------------------------------------|--------------14--------------------|
A|---------------------------------------------------|------------------------------------|
E|---------------------------------------------------|------------------------------------|



    S  S  S  S  S  E.    a  E  S  S  S  S  E
e|----------------------12-------------12----|
B|-15-12----12-15-12-------12-15-12-15----12-|
G|-------14----------------------------------|
D|-------------------------------------------|
A|-------------------------------------------|
E|-------------------------------------------|



    S      +S    E  S      +S    E  E      +E    S      +S    E
e|--------------12--------------12---------------------------12---|
B|-15b17==(17)r----15b17==(17)r----15b17==(17)r-15b17==(17)r------|
G|----------------------------------------------------------------|
D|----------------------------------------------------------------|
A|----------------------------------------------------------------|
E|----------------------------------------------------------------|




                 ~~~~~~~~~~~~~~
    E      +E    Q        +Q      S      +S    S  S    S  S  E  E  E      +E    E  S  S  E
e|-22b24==(24)r-22b24====(24)r---22b24==(24)r-22p19-|-22p19----19--------------19----------|
B|--------------------------------------------------|-------22----22b24==(24)r----22p19-22-|
G|--------------------------------------------------|--------------------------------------|
D|--------------------------------------------------|--------------------------------------|
A|--------------------------------------------------|--------------------------------------|
E|--------------------------------------------------|--------------------------------------|




    S      +S    E  S  S  E  S      +S    E  S  S  E
e|--------------19-----------------------19----------|
B|-22b24==(24)r----22p19-22-22b24==(24)r----22p19-22-|
G|---------------------------------------------------|
D|---------------------------------------------------|
A|---------------------------------------------------|
E|---------------------------------------------------|



                                    ~~~~~~~~~~~~~~~~~~~
    S      +S    E  S      +S    E  Q        +E   +E
e|--------------19--------------19-----------------------|
B|-22b24==(24)r----22b24==(24)r----22b24====(24)-(24)r---|
G|-------------------------------------------------------|
D|-------------------------------------------------------|
A|-------------------------------------------------------|
E|-------------------------------------------------------|



   |--3--|  |---3---|  |---3---|  |---3---|    |--3--|  |---3---|  |---3---|  |---3---|
   E  E  E  E  E    E  E  E    E  E  E    E    E  E  E  E  E    E  E  E    E  E  E    E

e|-19-20-22-20-19---17-19-17---15-17-15S==14-|-15-17-14-15-14---12-14-12S==10-12-10------|
B|-------------------------------------------|----------------------------------------13-|
G|-------------------------------------------|-------------------------------------------|
D|-------------------------------------------|-------------------------------------------|
A|-------------------------------------------|-------------------------------------------|
E|-------------------------------------------|-------------------------------------------|



   |--3--|  |------3------|  |---3---|  |---3---|
   E  E  E  E  E    a  a  E  E  E    E  E  E    E

e|----10-12-10--------------------------------------|
B|-13----------13---12h13p12-12-10---12-10----------|
G|-----------------------------------------12---11--|
D|--------------------------------------------------|
A|--------------------------------------------------|
E|--------------------------------------------------|



         T        T     T        T        T           T
   |------6-------|  |-----6-----|  |-----6-----|  |---3---|
   S  S  S  S  S  S  E  S  S  S  S  S  S  S  S  E  E  S  S E

e|------------------------------------------------------------|
B|-15p12-17p15p12-17p15-17p12h15-17p12h15-17p12h15-15-17p12s5-|
G|------------------------------------------------------------|
D|------------------------------------------------------------|
A|------------------------------------------------------------|
E|------------------------------------------------------------|



                        |--3--|
  E     E E E E E E E   Q Q   Q   E +E  E E

e|---------------------|---------------------|
B|---------------------|---------------------|
G|-9b11==9-9-9-9-9---9-|-9-9---9---9r(9)-7-9-|
D|---------------------|---------------------|
A|---------------------|---------------------|
E|---------------------|---------------------|



   S    +S  E E E S S E E E   E E  E E Q   +Q

e|--------------------------|-------------------|
B|--------------------------|-------------------|
G|-9b11r(9)p7---7-9p7-------|-------------------|
D|------------9-------9-7---|-------------------|
A|------------------------9-|-8-7----7-9---(9)--|
E|--------------------------|-----10------------|



    S  S  E  E  E  E  E  E  E    E   E  E  E  Q.      E
e|-18p15----------------------|--------------------------|
B|-------16S13----------------|--------------------------|
G|-------------12-------------|--------------15------15--|
D|----------------13-12-------|-----13-15S17-------------|
A|----------------------15-13-|-15-----------------------|
E|----------------------------|--------------------------|
|
 |  W                           +H           +E  Q.
e|----------------------------|--------------------------|
B|----------------------------|--------------------------|
G|--5-------------------------|-(5)----------(5)-7-------|
D|--5-------------------------|-(5)----------(5)-7-------|
A|--3-------------------------|-(3)----------(3)-5-------|
E|----------------------------|--------------------------|


   |--3--|  |--3--|  |--3--|  |--3--|    |--3---|  |--3--|  |--3--|  |--3--|
   E  E  E  E  E  E  E  E  E  E  E  E    E   E  E  E  E  E  E  E  E  E  E  E

e|----------------------------13-13-13-|--------------------------------------|
B|-13-13-13-15-15-15-16-16-16----------|--------------------13-13-13-15-16-17-|
G|-------------------------------------|-12--12-12-14-14-14-------------------|
D|-------------------------------------|--------------------------------------|
A|-------------------------------------|--------------------------------------|
E|-------------------------------------|--------------------------------------|
|
 |  W                                    +W
e|-------------------------------------|--------------------------------------|
B|-------------------------------------|--------------------------------------|
G|--5----------------------------------|-(5)----------------------------------|
D|--5----------------------------------|-(5)----------------------------------|
A|--3----------------------------------|-(3)----------------------------------|
E|-------------------------------------|--------------------------------------|



   |--3--|  |---3---|  |---3---|  |---3---|
   E  E  E  E  E    E  E  E    E  E  E    E

e|-17p12----17p12------17p12------17p12------|
B|-------12---------12---------12---------12-|
G|-------------------------------------------|
D|-------------------------------------------|
A|-------------------------------------------|
E|-------------------------------------------|
|
|           PM---|                PM---|
|  Q        E    E     E    E     E    E

e|-------------------------------------------|
B|-------------------------------------------|
G|-------------------------------------------|
D|--2----------------------------------------|
A|--2-------------------5h===7---------------|
E|--0--------0----0-----0----------0----0----|


   |--3--|  |---3---|  |---3---|  |---3---|    |--3--|  |---3---|  |---3---|  |---3---|
   E  E  E  E  E    E  E  E    E  E  E    E    E  E  E  E  E    E  E  E    E  E  E    E

e|-16p12----16p12------16p12------16p12------|-17p12----17p12------16p12------16p12------|
B|-------12---------12---------12---------12-|-------12---------12---------12---------12-|
G|-------------------------------------------|-------------------------------------------|
D|-------------------------------------------|-------------------------------------------|
A|-------------------------------------------|-------------------------------------------|
E|-------------------------------------------|-------------------------------------------|
|
|           PM---|                PM---|                PM---|                PM---|
|  Q        E    E     E    E     E    E       Q        E    E     E    E     E    E

e|-------------------------------------------|-------------------------------------------|
B|-------------------------------------------|-------------------------------------------|
G|-------------------------------------------|-------------------------------------------|
D|-------------------------------------------|--2----------------------------------------|
A|--5-------------------4h===7---------------|--2-------------------5h===7---------------|
E|--0--------0----0-----0----------0----0----|--0--------0----0-----0----------0----0----|


                                                                     ~~~~~
   |--3--|  |---3---|  |---3---|  |--3--|                            |---3---|
   E  E  E  E  E    E  E  E    E  E  E  E    Q       +Q     Q       +E    E  E

e|-17p12----17p12------16p12------16p12----|---------------------------------------|
B|-------12---------12---------12-------12-|-15b17===(17)r--15b17===(17)r-12-------|
G|-----------------------------------------|---------------------------------14----|
D|-----------------------------------------|---------------------------------------|
A|-----------------------------------------|---------------------------------------|
E|-----------------------------------------|---------------------------------------|
|
|           PM---|
|  Q        E    E     E    E     Q          W

e|-----------------------------------------|---------------------------------------|
B|-----------------------------------------|---------------------------------------|
G|-----------------------------------------|--5------------------------------------|
D|-----------------------------------------|--5------------------------------------|
A|--5-------------------4h===7-----2-------|--3------------------------------------|
E|--0--------0----0-----0----------0-------|---------------------------------------|


               ~~~~~~~~~~~~
                               |--3--|
   E  E  S  S  E      +Q       E  E  E

e|--------------------------------------|
B|-12-15-12h15-15b17==(17)r----15-14----|
G|-----------------------------------12-|
D|--------------------------------------|
A|--------------------------------------|
E|--------------------------------------|
|
 |  H                  +E   Q.
e|--------------------------------------|
B|--------------------------------------|
G|--5------------------(5)--7-----------|
D|--5------------------(5)--7-----------|
A|--3------------------(3)--5-----------|
E|--------------------------------------|


      ~~~~~~~~~~~                              ~~~~~~~~~~~~~~~~~~~
   |3-|            |--3---|
   Q  E      +Q    E   E  E  E  E    E   E  E  E      +Q    +Q

e|----15b17==(17)--15r-12----------|--------------------------------|
B|-12---------------------15-12----|--------------------------------|
G|------------------------------14-|-12-----12-14b16==(16)--(16)r\--|
D|---------------------------------|-----14-------------------------|
A|---------------------------------|--------------------------------|
E|---------------------------------|--------------------------------|
|
 |  W                                +W
e|---------------------------------|--------------------------------|
B|---------------------------------|--------------------------------|
G|--5------------------------------|-(5)----------------------------|
D|--5------------------------------|-(5)----------------------------|
A|--3------------------------------|-(3)----------------------------|
E|---------------------------------|--------------------------------|

 w/Rhy Fig 2 x2
   PM---------------------------------
   E E E E E E E E   E E E E E E E E
e|-----------------|-----------------|
B|-----------------|-----------------|
G|-----------------|-----7-5-4-7-7-5-|
D|-9-----5-4---7-5-|-9-7-------------|
A|---7-7-----5-----|-----------------|
E|-----------------|-----------------|



 ---------------|
  E E E E E E E  E   E  E  E  E  Q    +Q

e|-------------7----|------------17---(17)\--|
B|-------7-------10-|---17-15-14-------------|
G|-9-7-7---9-7------|------------------------|
D|------------------|------------------------|
A|------------------|------------------------|
E|------------------|------------------------|



     Q   E  E  E  Q    E    E  Q    E  E  E  E  E
e|-----------------------|------------12----------|
B|------------13---------|-15---------------------|
G|-/12--12-12----12---12-|----12---12----12-12-12-|
D|-----------------------|------------------------|
A|-----------------------|------------------------|
E|-----------------------|------------------------|
|
 |   Q   E  E  E  E E  E    E  E E  E  E  E  E  E
e|-----------------------|------------------------|
B|-----------------------|------------------------|
G|-----------------------|------------------------|
D|-----------------------|------------------------|
A|------------10p=7------|-10p=7------10p=7-------|
E|--/8---8--8-------8--8-|-------8--8--------8--8-|


    Q   E  E  E  Q    E    E  Q    E  Q        +E   +E
e|----------------------|------------15b17====(17)r(15)-|
B|-----------13---------|-15----------------------------|
G|-12--12-12----12---12-|----12---12--------------------|
D|----------------------|-------------------------------|
A|----------------------|-------------------------------|
E|----------------------|-------------------------------|
|
 |  Q   E  E  E  E E  E    E  E E  E  E     E   E    E
e|----------------------|-------------------------------|
B|----------------------|-------------------------------|
G|----------------------|-------------------------------|
D|----------------------|-------------------------------|
A|--7--------10p=7------|-10p=7------10p====7-----------|
E|--8---8--8-------8--8-|-------8--8------------8----8--|


w/Rhy Fig 2 x2
   |--3--|  |---3---|  |---3---|  |---3---|    |--3--|  |---3---|  |---3---|     |---3---|
   E  E  E  E  E    E  E  E    E  E  E    E    E  E  E  E  E    E  E  E    E  a  E  E    E

e|-15-12----12-------------------------------|-------------------------------------------12-|
B|-------15----15---12-15-12------12------12-|-15-12----------------------------------------|
G|-----------------------------14----14------|-------14-12------12-14-12---14-12h14p12------|
D|-------------------------------------------|-------------14-------------------------------|
A|-------------------------------------------|----------------------------------------------|
E|-------------------------------------------|----------------------------------------------|



                                                                 ~~~
   |--3--|  |---3---|  |---3---|  |---3---|    |-----3------|
   E  E  E  E  E    E  E  E    E  E  E    E    Q      Q     Q    H

e|-15p12-------------------------------------|----------------------------|
B|-------15-12------12-15-12-----------------|----------------------------|
G|-------------14--------------14-12------12-|-14b16==16r---12------------|
D|-----------------------------------14------|-------------------14-------|
A|-------------------------------------------|----------------------------|
E|-------------------------------------------|----------------------------|



     Q   E  E  E  Q    E    E  Q    E  E  E  E  E
e|-----------------------|------------12----------|
B|------------13---------|-15---------------------|
G|-/12--12-12----12---12-|----12---12----12-12-12-|
D|-----------------------|------------------------|
A|-----------------------|------------------------|
E|-----------------------|------------------------|
|
 |   Q   E  E  E  E E  E    E  E E  E  E  E  E  E
e|-----------------------|------------------------|
B|-----------------------|------------------------|
G|-----------------------|------------------------|
D|-----------------------|------------------------|
A|------------10p=7------|-10p=7------10p=7-------|
E|--/8---8--8-------8--8-|-------8--8--------8--8-|


    Q   E  E  E  Q    E    E  Q    E  Q        +E   +E
e|----------------------|------------15b17====(17)r(15)-|
B|-----------13---------|-15----------------------------|
G|-12--12-12----12---12-|----12---12--------------------|
D|----------------------|-------------------------------|
A|----------------------|-------------------------------|
E|----------------------|-------------------------------|
|
 |  Q   E  E  E  E E  E    E  E E  E  E     E   E    E
e|----------------------|-------------------------------|
B|----------------------|-------------------------------|
G|----------------------|-------------------------------|
D|----------------------|-------------------------------|
A|--7--------10p=7------|-10p=7------10p====7-----------|
E|--8---8--8-------8--8-|-------8--8------------8----8--|


w/Rhy Fig 2 x4
   |--3--|  |---3---|  |---3---|  |---3---|    |--3--|  |---3---|  |---3---|  |---3---|
   E  E  E  E  E    E  E  E    E  E  E    E    E  E  E  E  E    E  E  E    E  E  E    E

e|-15-12----12----------------------------14-|-17-15-14-15-14------14--------------------|
B|-------15----15---12-15-12------12---------|------------------17----17---15-17-15---14-|
G|-----------------------------14----14------|-------------------------------------------|
D|-------------------------------------------|-------------------------------------------|
A|-------------------------------------------|-------------------------------------------|
E|-------------------------------------------|-------------------------------------------|



   |--3--|  |---3---|  |---3---|  |---3---|    |--3--|  |---3---|
   E  E  E  E  E    E  E  E    E  E  E    E    E  E  E  E  E    E  E      +E    E      +E

e|-19-17-15------------21-19---17------------|-22-21-19------------22b24==(24)r-22b24==(24)r-|
B|----------19-17---16------------21-19---17-|----------22-21---19---------------------------|
G|-------------------------------------------|-----------------------------------------------|
D|-------------------------------------------|-----------------------------------------------|
A|-------------------------------------------|-----------------------------------------------|
E|-------------------------------------------|-----------------------------------------------|



   Gtr III
    ~~~~~~~~~~~~~~~~~
    E      +S   +S   Q   H
e|-22b24==(24)-(24)r-------------|
B|-------------------------------|
G|-------------------------------|
D|-------------------------------|
A|-------------------------------|
E|-------------------------------|



   W                W                W
e|----------------|----------------|---------------|
B|----------------|----------------|---------------|
G|----------------|----------------|---------------|
D|----------------|----------------|---------------|
A|----------------|----------------|---------------|
E|----------------|----------------|---------------|



    Gtrs I, II
    Rhy Fig 2 x3


 7/8               4/4
  PM------------|                            PM------------|
  E S S E E E E E   E E Q  H      W          E E E E E E E E

e|-----------------|-------------|----------|------------------|
B|-----------------|-------------|----------|------------------|
G|-----------------|-------------|----------|------------------|
D|-----------------|-------------|----------|------------------|
A|-----------------|-------------|----------|------------------|
E|-0-0-0-0-0-0-0-0-|-0-----------|----------|-3-3-3-3-3-3-3-3--|


  PM------------|         PM------|   PM--------|
  E E E E E E E E     E S S S S S S E S S S S S S

e|-----------------||------------------------------|
B|-----------------||o-----------------------------|
G|-----------------||------------------------------|
D|-----------------||--6---------------------------|
A|-----------------||o-4-4-4-4-4-4-4-4-4-4-4-4-4-4-|
E|-3-3-3-3-3-3-3-3-||------------------------------|


    PM--------|   PM--------|
  E S S S S S S E S S S S S S  3x E E E E E E E E

e|------------------------------||-----------------|
B|-----------------------------o||-----------------|
G|------------------------------||-----------------|
D|-6----------------------------||---5p4---4p2-----|
A|-4-4-4-4-4-4-4-4-4-4-4-4-4-4-o||-0-----0-----5-4-|
E|------------------------------||-----------------|


[D.S. al Coda]
               &
  |-3-| |-3-|     |-3-|
  Q Q Q Q Q Q     Q Q Q Q  Q    E S S E E E E E E

e|--------------||-------------|-------------------|
B|--------------||-------------|-------------------|
G|-------7-6-4--||-6-5-6-7--8--|-------------------|
D|-5-4-2-7-6-4--||-6-5-6-7--8--|-----------------5-|
A|-5-4-2-5-4-2--||-4-3-4-5--6--|-----------------5-|
E|-3-2-0--------||-------------|-0-0-0-0-0-0-0-0-3-|


   +H     +E  Q  E   +H     +E  Q  E
e|-----------------|------------------|
B|-----------------|------------------|
G|-----------------|------------------|
D|-(5)----(5)-8--4-|-(4)----(4)-7--3--|
A|-(5)----(5)-8--4-|-(4)----(4)-7--3--|
E|-(3)----(3)-6--2-|-(2)----(2)-5--1--|


  +H     +E  Q.     E S S E E E E E E   +H     +E  Q  E   +H     +E  Q  E

e|-----------------|-------------------|-----------------|-----------------|
B|-----------------|-------------------|-----------------|-----------------|
G|-----------------|-------------------|-----------------|-----------------|
D|-(3)----(3)-5----|-----------------5-|-(5)----(5)-8--4-|-(4)----(4)-7--3-|
A|-(3)----(3)-5----|-----------------5-|-(5)----(5)-8--4-|-(4)----(4)-7--3-|
E|-(1)----(1)-3----|-0-0-0-0-0-0-0-0-3-|-(3)----(3)-6--2-|-(2)----(2)-5--1-|

|-Rhy Fig 3                                                 end Rhy Fig 3-|


Rhy Fig 3 x2


 w/Rhy Fig 3 x4
   Gtr III
    H      Q     E E   +H          +E   Q   E
e|-------------------|------------------------|
B|-----------------8-|-(8)---------(8)S11S==7-|
G|-------------------|------------------------|
D|-------------------|------------------------|
A|-------------------|------------------------|
E|-------------------|------------------------|



   +H     +E   Q  E   +H     +E  Q.
e|------------------|------------------|
B|-(7)----(7)S10S=6-|-(6)----(6)S8-----|
G|------------------|------------------|
D|------------------|------------------|
A|------------------|------------------|
E|------------------|------------------|



    H     +Q.     E   +H          +E   Q   E
e|------------------|------------------------|
B|--5-----(5)-----8-|-(8)---------(8)S11S==7-|
G|------------------|------------------------|
D|------------------|------------------------|
A|------------------|------------------------|
E|------------------|------------------------|



   +H     +E   Q  E   +H     +E  Q.
e|------------------|------------------|
B|-(7)----(7)S10S=6-|-(6)----(6)S8-----|
G|------------------|------------------|
D|------------------|------------------|
A|------------------|------------------|
E|------------------|------------------|



    H     +Q.     E   +H          +E   Q   E
e|----------------6-|-(6)---------(6)S=9S==5-|
B|--5-----(5)-----8-|-(8)---------(8)S11S==7-|
G|------------------|------------------------|
D|------------------|------------------------|
A|------------------|------------------------|
E|------------------|------------------------|



   +H     +E   Q  E   +H     +E  Q.
e|-(5)----(5)S=8S=4-|-(4)----(4)-6-----|
B|-(7)----(7)S10S=6-|-(6)----(6)S8-----|
G|------------------|------------------|
D|------------------|------------------|
A|------------------|------------------|
E|------------------|------------------|



    H     +Q.     E   +H          +E   Q   E
e|--3-----(3)-----6-|-(6)---------(6)S=9S==5-|
B|--5-----(5)-----8-|-(8)---------(8)S11S==7-|
G|------------------|------------------------|
D|------------------|------------------------|
A|------------------|------------------------|
E|------------------|------------------------|



   +H     +E   Q  E   +H     +E  Q.
e|-(5)----(5)S=8S=4-|-(4)----(4)-6-----|
B|-(7)----(7)S10S=6-|-(6)----(6)S8-----|
G|------------------|------------------|
D|------------------|------------------|
A|------------------|------------------|
E|------------------|------------------|



 7/8                 4/4
  Gtrs I, II
                          PM------|   PM--------|
  E S S E E E E E     E S S S S S S E S S S S S S

e|-----------------||------------------------------|
B|-----------------||o-----------------------------|
G|-----------------||------------------------------|
D|-----------------||--6---------------------------|
A|-----------------||o-4-4-4-4-4-4-4-4-4-4-4-4-4-4-|
E|-0-0-0-0-0-0-0-0-||------------------------------|


    PM--------|   PM--------|     PM--------|   PM--------|
  E S S S S S S E S S S S S S   E S S S S S S E S S S S S S

e|-----------------------------|-------------------------------|
B|-----------------------------|-------------------------------|
G|-----------------------------|-------------------------------|
D|-6---------------------------|-6-----------------------------|
A|-4-4-4-4-4-4-4-4-4-4-4-4-4-4-|-4-4-4-4-4-4-4-4-4-4-4-4-4-4---|
E|-----------------------------|-------------------------------|


  1.                 2.
  PM          PM------|           PM|       PM------|   PM--------|
  E E E E E E E E     E E E E E E E E   E S S S S S S E S S S S S S

e|------------------||-----------------|-----------------------------|
B|-----------------o||-----------------|-----------------------------|
G|------------------||-----------------|-----------------------------|
D|---5p4---4p2------||---5p4---4p2-----|-7---------------------------|
A|-0-----0-----5-4-o||-0-----0-----5-4-|-5-5-5-5-5-5-5-5-5-5-5-5-5-5-|
E|------------------||-----------------|-----------------------------|


    PM--------|   PM--------|     PM--------|   PM--------|
  E S S S S S S E S S S S S S   E S S S S S S E S S S S S S

e|-----------------------------|-------------------------------|
B|-----------------------------|-------------------------------|
G|-----------------------------|-------------------------------|
D|-7---------------------------|-7-----------------------------|
A|-5-5-5-5-5-5-5-5-5-5-5-5-5-5-|-5-5-5-5-5-5-5-5-5-5-5-5-5-5---|
E|-----------------------------|-------------------------------|


  PM          PM|       PM------|   PM--------|
  E E E E E E E E   E S S S S S S E S S S S S S

e|-----------------|-----------------------------|
B|-----------------|-----------------------------|
G|-----------------|-----------------------------|
D|---5p4---4p2-----|-6---------------------------|
A|-0-----0-----5-4-|-4-4-4-4-4-4-4-4-4-4-4-4-4-4-|
E|-----------------|-----------------------------|


    PM--------|   PM--------|     PM--------|   PM--------|
  E S S S S S S E S S S S S S   E S S S S S S E S S S S S S

e|-----------------------------|------------------------------|
B|-----------------------------|------------------------------|
G|-----------------------------|------------------------------|
D|-6---------------------------|-6----------------------------|
A|-4-4-4-4-4-4-4-4-4-4-4-4-4-4-|-4-4-4-4-4-4-4-4-4-4-4-4-4-4--|
E|-----------------------------|------------------------------|


  PM          PM|
                    |-3-| |-3-|
  E E E E E E E E   Q Q Q Q Q Q   H    H      H    H

e|-----------------|-------------|-----------|-----------|
B|-----------------|-------------|-----------|-----------|
G|-----------------|-------7-6-4-|-6----6----|-6----6----|
D|---5p4---4p2-----|-5-4-2-7-6-4-|-6----6----|-6----6----|
A|-0-----0-----5-4-|-5-4-2-5-4-2-|-4----4----|-4----4----|
E|-----------------|-3-2-0-------|-----------|-----------|


                              PM------|   PM--------|
  W          +W           E S S S S S S E S S S S S S

e|----------|------------|-----------------------------|
B|----------|------------|-----------------------------|
G|-6--------|-(6)--------|-----------------------------|
D|-6--------|-(6)--------|-6---------------------------|
A|-4--------|-(4)--------|-4-4-4-4-4-4-4-4-4-4-4-4-4-4-|
E|----------|------------|-----------------------------|


    PM--------|   PM--------|     PM--------|   PM--------|
  E S S S S S S E S S S S S S   E S S S S S S E S S S S S S

e|-----------------------------|-------------------------------|
B|-----------------------------|-------------------------------|
G|-----------------------------|-------------------------------|
D|-6---------------------------|-6-----------------------------|
A|-4-4-4-4-4-4-4-4-4-4-4-4-4-4-|-4-4-4-4-4-4-4-4-4-4-4-4-4-4---|
E|-----------------------------|-------------------------------|


  PM          PM|
                    |-3-| |-3-|
  E E E E E E E E   Q Q Q Q Q Q   H    +Q    Q

e|-----------------|-------------|---------------*|
B|-----------------|-------------|---------------*|
G|---4p2p0-4p0-----|-------7-6-4-|-6----(6)\-----*|
D|---5p4---4p2-4-2-|-5-4-2-7-6-4-|-6----(6)\-----*|
A|-0-----0-----5-4-|-5-4-2-5-4-2-|-4----(4)\-----*|
E|-----------------|-3-2-0-------|---------------*|



************************************

| x    Dead note
| (n)  Ghost note
| h    Hammer-on
| p    Pull-off
| r    Release
| b    Bend
| /    Slide up 

************************************
Suggest correction
comments
print report bad tab
26 comments total. Showing first comments.
0 reply
monkey_xxx2003 660 wrote on March 22 2005, 12:00 am

nice tab but could it be any fukkin longer

+1 reply
666filth 30 wrote on May 11 2005, 12:00 am

yeh nice tab, good work man

+2 reply
metal4all 50 wrote on February 17 2006, 12:19 pm

dude, ive never seen a disappointing tab from you. great job

guest
You may want to rate the tab now too:
select rating
Please do not post tabs as comments. Select "correction" instead!