Oops, an error
Loading. Please wait.

Dream No More Tab

version 1
version 1

Intro

  • Intro to the song, to help fellow tabbers.

Interactive

5,560 views 1,164 this week
no commentswrite comment
1 2 3 4 5
x 4
add to favorites
launch autoscroll
font size
0
reset
how to read this tab
guitar tuner
Autoscroll
slow
fast
+/-
esc
set tempo
stop
Help us to improve Ultimate-Guitar.com Take our survey!
×
Author
Difficulty
Tuning
intermediate
D G C F A D
About this tab version
Intro to the song, to help fellow tabbers. Was this info helpful? Yes No
Important: Full Step Down Tuning


D|---------------------------------------------------------------------------| 
A|---------------------------------------------------------------------------|
F|---------------------------------------------------------------------------|
C|---------------------------------------------------------------------------|
G|-5--------4--------3--------8-8-7------------------------------------------|
D|-3--------2--------1--------6-6-5------------------------------------------|

D|---------------------------------------------------------------------------| 
A|---------------------------------------------------------------------------|
F|---------------------------------------------------------------------------|
C|---------------------------------------------------------------------------|
G|-5--------4--------7--------8-8-7------------------------------------------|
D|-3--------2--------5--------6-6-5------------------------------------------|

Main Riff:
D|---------------------------------------------------------------------------| x3
A|---------------------------------------------------------------------------|
F|---------------------------------------------------------------------------|
C|---------------------------------------------------------------------------|
G|-5h7-7-7-7----5h7-7-7-5----------------------------------------------------|
D|-0-0-0-0-0----0-0-0-0---6~~------------------------------------------------|

Fourth time:

D|---------------------------------------------------------------------------| 
A|---------------------------------------------------------------------------|
F|---------------------------------------------------------------------------|
C|---------------------------------------------------------------------------|
G|---------8-8-7-------------------------------------------------------------|
D|---------6-6-5-------------------------------------------------------------|
Suggest correction
comments
print report bad tab
guest
You may want to rate the tab now too:
select rating
Wanna post a correction for this tab? Suggest correction