Oops, an error
Loading. Please wait.

Enter Sandman Tab

version 2
193,407 views 126 this week
15 commentsread comments
1 2 3 4 5
excellent!
x 43
add to favorites
launch autoscroll
font size
0
reset
how to read this tab
guitar tuner
Autoscroll
slow
fast
+/-
esc
set tempo
stop
Help us to improve Ultimate-Guitar.com Take our survey!
×
Author
jathhat 72
Author/Artist: Metallica
Tittle: Enter Sandman (Intro)
Album: Metallica(black)
 
[Intro]

e|-----------------------------|
B|-----------------------------|
G|-----------------------------|
D|--------5--------------------| 
A|-----7-----------7-----------| x12
E|--0--------6--5--------------|
                               
e|-----------------------------|                                                            
B|-----------------------------|
G|-----------------------------|
D|-----------------------------|
A|-2---------------/7----------|
E|-0---0-0-0-0-0-0-------------|
      PM---------| 

e|-----------------------------|
B|-----------------------------|
G|-----------------------------|
D|-----------------------------|
A|----------------/7-----------| x3
E|-0-0-0-0-0-0-0---------------|
  PM------------| 

e|-----------------------------|
B|-----------------------------|
G|-----------------------------|
D|-----------------------------|
A|------/7------------3--------| x4
E|--0-0----6---0-0-0--1--------|
   PM--|     
 
e|-----------------------------|
B|-----------------------------|
G|-----------------------------|
D|-----------------------------|
A|-----/7-----------3----------| x6
E|-0-0----6-5--0-0--1----------|
       
e|-----------------------------|
B|-----------------------------|
G|-----------------------------|
D|-----------------------------|
A|------/7---------------------|
E|--0-0-----6-5---0-0----------|
         
e|------------------------------------------------------------------|
B|------------------------------------------------------------------|
G|------------------------------------------------------------------|
D|------------------------------------------------------------------|
A|-2--/7----------2-2-/7---------2-2-/7---------5---4---4--5--4--2--| x2
E|-0------6-5--0--0-0-----6-5-0--0-0-----6-5-0--3-0-2-0-2--3--2--0--|



************************************

| /  Slide up 

************************************
Suggest correction new What's this?
You can suggest a correction to this tab. Community and Mods will review your correction and vote to approve or reject it.
comments
print report bad tab
15 comments total. Showing first comments.
-1 reply
skatrix247 127 wrote on March 4 2002, 12:00 am

considering you copied it out of a tab book, why not the whole thing?

-1 reply
colorado25 0 wrote on March 4 2002, 12:00 am

jathhat = ass

+2 reply
Erikly 0 wrote on March 5 2002, 12:00 am

Do the whole damn thing

guest
You may want to rate the tab now too:
select rating
Please do not post tabs as comments. Select "correction" instead!