Oops, an error
Loading. Please wait.

Fade To Black Bass Tab

version 2
version 2
146,451 views 222 this week
7 commentsread comments
1 2 3 4 5
excellent!
x 30
add to favorites
launch autoscroll
font size
0
reset
guitar tuner
Autoscroll
slow
fast
+/-
esc
set tempo
stop
Help us to improve Ultimate-Guitar.com Take our survey!
×
Author
Fade to Black
Ride The Lightning
Elektra Records
*1984*

Fade To Black by Metallica


                                              (0:14)
G|----------|----------|----------|-------------|----------|------|
D|----------|----------|----------|-------------|----------|------|
A|----------|----------|----------|-------------|----------|------|
E|----------|----------|----------|-----------5-|-7--------|------|

                        (0:22)
G|----------|-------------|------------|
D|----------|-------------|------------|
A|----------|-------------|------------|
E|----------|-----------5-|-7----------|

           (0:31)                  (0:39)
G|------------|----------|------------|------|
D|------------|----------|------------|------|
A|---------5--|----------|------------|------|
E|------------|-7--------|---------5--|-7----|

G|----------|----------|-------------|----------|----------|----------|------|
D|----------|----------|-------------|----------|----------|----------|------|
A|----------|----------|-------------|----------|----------|----------|------|
E|----------|----------|-----------5-|-7--------|----------|----------|------|

G|---------------|-------------||----------|
D|---------------|-------------||----------|
A|---------------|-2----2------||-0--------|
E|-1----1-4----4-|--------0----||----------|

G|----------|----------|---------------|
D|----------|----------|---------------|
A|----------|----------|---------------|
E|----------|----------|------3--/7----|

G|----------|----------|----------|----------|-------------|--------------|
D|----------|----------|----------|----------|-------------|--------------|
A|-0--------|----------|----------|----------|-0-------0-2-|-3-------3-2--|
E|----------|----------|----------|----------|-------------|--------------|

G|-------------|----------------|-------------|
D|-------------|----------------|-------------|
A|---------3-2-|--------2--/7\--|-0-------0-2-|
E|-3-----------|-0--------------|-------------|

G|---------------|-------------|---------------||
D|---------------|-------------|---------------||
A|-3-----------5-|-------------|------7\-------||
E|---------5s7---|-3-------5-3-|-0--------0----||


[1st Verse]

G|-------------|-----------------|-------------|-----------------|
D|-------------|-----------------|-------------|-----------------|
A|-0-------0-2-|-3----3-3--2h3-2-|-------------|-----------5-7---|
E|-------------|-----------------|-3-------5-3-|-0--0-0-/7-------|

G|-------------|---------------|-------------|--------------|
D|-------------|---------------|-------------|--------------|
A|-0-------0-2-|-3-----------5-|-------------|--------------|
E|-------------|---------5s7---|-3-------5-3-|-0----3--/7---|

G|-------------|-----------------|-------------|-------------|
D|-------------|-----------------|-------------|-------------|
A|-0-------0-2-|-3----3-3--2h3-2-|---------3-2-|------7--7---|
E|-------------|-----------------|-3-----------|-0-----------|

G|-------------|---------------------|--------------------|-----------------||
D|-------------|-------------5h7p5---|-5----(5)-----5h7-5-|-----------------||
A|-0-------0-2-|-3----(3)-/7-------7-|----------5h7-------|-7-7-7-7-7-7-7-7-||
E|-------------|---------------------|--------------------|-----------------||

G||-------------------|------------------|--------------|------------------|
D||o------------------|------------------|--------------|------------------|
A||o-0----0-0-------5-|-3----3-3-------5-|-0----0-0--5--|-7------------3-2-|
E||-----------0-0-3---|----------0-0-3---|--------------|------0-0-0-0-----|

G|------------------|------------------|---------------|-------||
D|------------------|------------------|---------------|------o||
A|-0----0-0-------5-|-3----3-3-------5-|-0----0-0------|------o||
E|----------0-0-3---|----------0-0-3---|-----------3-2-|-0-----||


[Interlude]

G|-------------|---------------|-------------|---------------|
D|-------------|---------------|-------------|---------------|
A|-0-------0-2-|-3-----------5-|-------------|---------/7\---|
E|-------------|---------5s7---|-3-------5-3-|-0-------------|

G|-------------|----------------|--------------|--------------||
D|-------------|----------------|--------------|--------------||
A|-0-------0-2-|----------------|--------------|--------------||
E|-------------|-3--3--3--0-3-5-|-3--3--3--5-3-|-0-------/7---||


[2nd Verse]

G|-----------------|---------------|-------------|----------------|
D|-----------------|---------------|-------------|----------------|
A|-0----0-0--0-3h5-|-3----3-3--5---|-------------|-----------2/---|
E|-----------------|-------------7-|-3----3-5--3-|-0----0-0-------|

G|-------------|-------------|-----------------|---------------|
D|-------------|-------------|-----------------|---------------|
A|-0-------0-2-|-3-------3-5-|-----------------|---------------|
E|-------------|-------------|-3--3--(3)-3-5-3-|-0----0--5s7---|

G|-------------|-----------------|---------------|----------------|
D|-------------|-----------------|---------------|----------------|
A|-0----0--0-2-|-3----3-3--2h3-2-|---------------|----7---7-------|
E|-------------|-----------------|-3----3-3--5-3-|-0----0----5s7--|

G|-------------|----------------------|---------------|-----------------|
D|-------------|--------------5h7p5---|-5-------5h7p5-|-----------------|
A|-0----0--0-2-|-3----3-3-5h7-------7-|---------------|-7-7-7-7-7-7-7-7-|
E|-------------|----------------------|---------------|-----------------|

G|------------------|------------------|--------------|-------------------|
D|------------------|------------------|--------------|-------------------|
A|-0----0-0-------5-|-3----3-3-------5-|-0----0-0--5--|-7------------3-2--|
E|----------0-0-3---|----------0-0-3---|--------------|------0-0-0-0------|

G|------------------|------------------|---------------|------|
D|------------------|------------------|---------------|------|
A|-0----0-0-------5-|-3----3-3-------5-|-0----0-0------|------|
E|----------0-0-3---|----------0-0-3---|-----------3-2-|-0----|

G|------------------|------------------|--------------|-------------------|
D|------------------|------------------|--------------|-------------------|
A|-0----0-0-------5-|-3----3-3-------5-|-0----0-0--5--|-7------------3-2--|
E|----------0-0-3---|----------0-0-3---|--------------|------0-0-0-0------|

G|------------------|------------------|---------------||------|
D|------------------|------------------|---------------||------|
A|-0----0-0-------5-|-3----3-3-------5-|-0----0-0------||------|
E|----------0-0-3---|----------0-0-3---|-----------3-2-||-0----|

G|------------|------------|------------|------------|
D|------------|------------|------------|------------|
A|------------|------------|------------|------------|
E|-(0)--------|-(0)--------|-(0)--------|-(0)--------|

G|------------|----------------|--------------------------||
D|------------|------------9-9-|-9-7-7-7-5-5-5-4-4-4-5----||
A|------------|----------------|--------------------------||
E|-(0)--------|-(0)------------|--------------------------||


[Bridge]

G||-----------------|----------------|
D||o----------------|---------5-4----|
A||o-5-7-----7------|-5-7------------|
E||------0-0----0-0-|-----0-0--------|

G|------------------|---------------------4--|
D|--------------9-9-|-9-7-7-7-5-5-5-4-4-4----|
A|---5---5-5--------|------------------------|
E|------------------|------------------------|

G|----------------|------------------|------------------|-----------------------|
D|----------------|---------5-4--/12-|--------------9-9-|-9-7-7-7-5-5-5-4-4-4-5-|
A|-5-7-----7------|-5-7--------------|---5---5-5--------|-----------------------|
E|-----0-0----0-0-|-----0-0----------|------------------|-----------------------|


   1.
G|----------------|------------------|------------------|---------------------4-|
D|----------------|---------5-4-/12--|--------------9-9-|-9-7-7-7-5-5-5-4-4-4---|
A|-5-7-----7------|-5-7--------------|---5---5-5--------|-----------------------|
E|-----0-0----0-0-|-----0-0----------|------------------|-----------------------|

G|----------------|------------------|
D|----------------|---------5-4--/12-|
A|-5-7-----7------|-5-7--------------|
E|-----0-0----0-0-|-----0-0----------|

G|------------------|---------------------4--||
D|--------------9-9-|-9-7-7-7-5-5-5-4-4-4---o||
A|---5---5-5--------|-----------------------o||
E|------------------|------------------------||

   2.
G|--------------|----------------|------------------|---------------------4-|
D|--------------|----------------|--------------9-9-|-9-7-7-7-5-5-5-4-4-4---|
A|---------7----|----------------|---------5--------|-----------------------|
E|-0-0-0-0------|-0-0-0-0-3-2----|-0-0-0-0----------|-----------------------|

G|--------------|----------------|------------------|-----------------------||
D|--------------|----------------|--------------9-9-|-9-7-7-7-5-5-5-4-4-4-5-||
A|---------7----|----------------|---------5--------|-----------------------||
E|-0-0-0-0------|-0-0-0-0-3-2----|-0-0-0-0----------|-----------------------||

G||-----------------|------------------|----------------|------------------|
D||o----------------|------------------|----------------|------------------|
A||o-2----2-(2)--2--|-(2)-2----4-2-0---|-0----0-(0)--0--|-(0)-0----0-0-0-0-|
E||-----------------|----------------2-|----------------|------------------|

G|-----------------|-------------------|----------------|------------------||
D|-----------------|-------------------|----------------|------------2-2--o||
A|-----------------|-------------------|-0----0-(0)--0--|-0-0----0-0------o||
E|-3----3-(3)--3-3-|-(3)-3-3-3-3-3-3-3-|----------------|------------------||

G||-----------------|----------------|------------------|----------------|
D||o----------------|----------------|------------------|----------------|
A||o-2----2-(2)--2--|-2-2--2-4-2-0---|-0-0-0-0-(0)--0-0-|-0-0--0-0-0-0-0-|
E||-----------------|--------------2-|------------------|----------------|

G|------------------|----------------|-----------------|------------------||
D|------------------|----------------|-----------------|------------2-2--o||
A|------------------|----------------|-0----0-(0)--0-0-|-0-0----0-0------o||
E|-3-3-3-3-(3)--3-3-|-3-3----3-3-3-3-|-----------------|------------------||

G|----------------|----------------|------------------|-----------------|
D|----------------|----------------|------------------|-----------------|
A|-2----2-(2)--2--|-2-2--2-4-2-0---|-0-0-0-0-(0)--0-0-|-0-0--0-0-0-0-0--|
E|----------------|--------------2-|------------------|-----------------|

G|------------------|----------------|-----------------|-----------------|
D|------------------|----------------|-----------------|------------2-2--|
A|------------------|----------------|-----------------|-----------------|
E|-3-3-3-3-(3)--3-3-|-3-3----3-3-3-3-|-2----2-(2)--2-2-|-2-2----2-2------|

G||-----------------|----------------|------------------|----------------|
D||o----------------|----------------|------------------|----------------|
A||o-2----2-(2)--2--|-2-2--2-4-2-0---|-0-0-0-0-(0)--0-0-|-0-0--0-0-0-0-0-|
E||-----------------|--------------2-|------------------|----------------|

G|------------------|----------------|-----------------|------------------||
D|------------------|----------------|-----------------|------------2-2--o||
A|------------------|----------------|-0----0-(0)--0-0-|-0-0----0-0------o||
E|-3-3-3-3-(3)--3-3-|-3-3----3-3-3-3-|-----------------|------------------||



************************************

| (n)  Ghost note
| h    Hammer-on
| p    Pull-off
| /    Slide up
| \    Slide down
| s    Slap

************************************
Suggest correction
What's this?
You can suggest a correction to this tab. Community and Mods will review your correction and vote to approve or reject it.
comments
print report bad tab
7 comments total. Showing first comments.
+4 reply
bass_fredrik 38 wrote on January 19 2006, 03:55 pm

dude awsome tab!!!!

+3 reply
Lemurs4mangos 2,244 wrote on April 13 2008, 08:42 am

Great Tab Man!!!

0 reply
pinkpank98 22 wrote on September 10 2009, 08:11 pm

fantastic dude!

guest
You may want to rate the tab now too:
select rating
Please do not post tabs as comments. Select "correction" instead!