Oops, an error
Loading. Please wait.

Fight Fire With Fire tab

version 4
version 4

Whole song

265 views 9 this week
no commentswrite comment
1 2 3 4 5
2 more votes to show rating
add to favorites
×
Save as Personal and add changes to this tab that will be seen only by you. Learn more ›
×
You can save this tab as Personal to edit and correct it or add notes. All changes will be seen only by you. Learn more »
launch autoscroll
font size
0
reset
how to read this tab
guitar tuner
backing track
0:00
0:00
edit
Autoscroll
slow
fast
+/-
esc
set tempo
stop
Author
Difficulty
About this tab version
This tab includes the lyrics in position. Was this info helpful? Yes No
Artist: Metallica
Album: Ride The Lightning
Song: Fight Fire With Fire


Tuning: standard EADGBe


Intro (Acoustic Steel-Guitars)
  Guitar 1
e| |----------------|-----------------------| |----------------| |--------------------|
B| |----------------|-----------------------| |----------------| |--------3--------3--|
G|3|----------------|-----------------------|2|----------------|3|-----2--------2-----|
D|/|----------------|-----------------------|/|----------------|/|--4--------4--------|
A|4|-------0----2---|--3------------2--0----|4|----------------|4|--------------------|
E| |--3-------------|-----------------------| |--0-----0-------| |--------------------|
 |
 |Guitar 2
e| |----------------|-----------------------| |----------------| |--------------------|
B| |--0----1----3---|--5--6--5h6p5--3-------| |--5-------------| |--------------------|
G|3|--0----2----4---|--5------------4--5p4--|2|-----4----------|3|--------2--------2--|
D|/|----------------|------------------7----|/|--------6--6h7--|/|--0--4-----0--4-----|
A|4|----------------|-----------------------|4|----------------|4|--------------------|
E| |----------------|-----------------------| |----------------| |--------------------|


  Guitar 1
e|----------------|-----------------------| |-----------------| |--------5--------5--|
B|----------------|-----------------------| |-----------------| |-----5--------5-----|
G|----------------|-----------------------|2|-----------------|3|--6--------6--------|
D|----------------|-----------------------|/|-----------------|/|--------------------|
A|-------0----2---|--3------------2--0----|4|-----------------|4|--------------------|
E|--3-------------|-----------------------| |--0-------0------| |--------------------|
 |
 |Guitar 2
e|----------------|-----------------------| |-----------------| |--------0--------0--|
B|--0----1----3---|--5--6--5h6p5--3-------| |--3-------3---2--| |--2--2--------2-----|
G|--0----2----4---|--5------------4--5p4--|2|------2----------|3|--2--------2--------|
D|----------------|------------------7----|/|-----------------|/|--------------------|
A|----------------|-----------------------|4|--2-----------2--|4|--0-----------------|
E|----------------|-----------------------| |-----------------| |--------------------|


  Guitar 1
e|----------------|-----------------------| |----------------| |--------------------|
B|----------------|-----------------------| |----------------| |--------3--------3--|
G|----------------|-----------------------|2|----------------|3|-----4--------4-----|
D|----------------|-----------------------|/|----------------|/|--5--------5--------|
A|-------0----2---|--3------------2--0----|4|----------------|4|--------------------|
E|--3-------------|-----------------------| |--0-----0-------| |--------------------|
 |
 |Guitar 2
e|----------------|-----------------------| |--5-------------| |---------3-------3--|
B|--0----1----3---|--5--6--5h6p5--3-------| |-----5----------| |--3--3--------3-----|
G|--0----2----4---|--5------------4--5p4--|2|--------6--6--7-|3|--4--------4--------|
D|----------------|------------------7----|/|----------------|/|--5-----------------|
A|----------------|-----------------------|4|----------------|4|--------------------|
E|----------------|-----------------------| |----------------| |--------------------|


  Guitar 1
e|----------------|-----------------------| |-----------3--3-----3-----|--------7--10--8-----|
B|----------------|-----------------------| |-----0--3--3--3--3--3--3--|--8--5--5--8---------|
G|----------------|-----------------------|4|--0--0--4--------4-----4--|--5--5---------9-----|
D|----------------|-----------------------|/|--2-----------------------|--5--5--5------------|
A|-------0----2---|--3------------2--0----|4|--------------------------|-----------8---7-----|
E|--3-------------|-----------------------| |--------------------------|---------------------|
 |
 |Guitar 2
e|----------------|-----------------------| |--0-----------------------|--0------------------|
B|--0----1----3---|--5--6--5h6p5--3-------| |--0-----------------------|--1------------------|
G|--0----2----4---|--5------------4--5p4--|4|--0-----------0-----------|--0------------------|
D|----------------|------------------7----|/|--2-----------0-----------|--2------------------|
A|----------------|-----------------------|4|--2-----------------------|--3------------------|
E|----------------|-----------------------| |--0-----------3-----------|---------------------|
                                               LR........| LR...........| LR................|

(Distortion Guitars 1 + 2 / Volume swell)
e|----------------------------------|
B|----------------------------------|
G|----------------------------------|
D|--(2)-----------------------------|
A|--(2)-----------------------------|
E|--(0)-----------------------------|
    LR............................|

  Guitar 1
e|----------------------------------|--------------------------------|
B|----------------------------------|--------------------------------|
G|----------------------------------|--------------------------------|
D|----------------------------------|--------------------------------|
A|--------------5----------------4--|--------------5------4-------4--|
E|--0-0-0-0-0-0-3--0-0-0-0-0-0-0-2--|--0-0-0-0-0-0-3--0-0-2---0-0-2--|
    PM........|    PM..........|       PM........|    PM|     PM|


e|----------------------------------|--------------------------------|
B|----------------------------------|--------------------------------|
G|----------------------------------|--------------------------------|
D|----------------------------------|--------------------------------|
A|--------------5----------------4--|-------------5-------4-------3--|
E|--0-0-0-0-0-0-3--0-0-0-0-0-0-0-2--|-0-0-0-0-0-0-3---0-0-2---0-0-1--|
    PM........|    PM..........|      PM........|     PM|     PM|

  Guitar 1
e|----------------------------------|--------------------------------|
B|----------------------------------|--------------------------------|
G|----------------------------------|--------------------------------|
D|----------------------------------|--------------------------------|
A|--------------5----------------4--|--------------5------4-------4--|
E|--0-0-0-0-0-0-3--0-0-0-0-0-0-0-2--|--0-0-0-0-0-0-3--0-0-2---0-0-2--|
 |  PM........|    PM..........|       PM........|    PM|     PM|
 |
 |Guitar 2
e|----------------------------------|--------------------------------|
B|----------------------------------|--------------------------------|
G|----------------------------------|--------------------------------|
D|--------------5----------------4--|--------------5------4-------4--|
A|--------------5----------------4--|--------------5------4-------4--|
E|--------------3----------------2--|--------------3------2-------2--|

  Guitar 1
e|----------------------------------|--------------------------------|
B|----------------------------------|--------------------------------|
G|----------------------------------|--------------------------------|
D|----------------------------------|--------------------------------|
A|--------------5----------------4--|-------------5-------4-------3--|
E|--0-0-0-0-0-0-3--0-0-0-0-0-0-0-2--|-0-0-0-0-0-0-3---0-0-2---0-0-1--|
 |  PM........|    PM..........|       PM........|    PM|     PM|
 |
 |Guitar 2
e|----------------------------------|--------------------------------|
B|----------------------------------|--------------------------------|
G|----------------------------------|--------------------------------|
D|--------------5----------------4--|--------------5------4-------3--|
A|--------------5----------------4--|--------------5------4-------3--|
E|--------------3----------------2--|--------------3------2-------1--|

Guitar 1 + 2
e||----------------------------------|--------------------------------|
B|*----------------------------------|--------------------------------|
G||----------------------------------|--------------------------------|
D||----------------------------------|--------------------------------|
A|*--------------5----------------4--|--------------5------4-------4--|
E||--0-0-0-0-0-0-3--0-0-0-0-0-0-0-2--|--0-0-0-0-0-0-3--0-0-2---0-0-2--|
    PM........|    PM..........|       PM........|    PM|     PM|


e|----------------------------------|--------------------------------||
B|----------------------------------|--------------------------------*|
G|----------------------------------|--------------------------------||
D|----------------------------------|--------------------------------||
A|--------------5----------------4--|-------------5-------4-------3--*|
E|--0-0-0-0-0-0-3--0-0-0-0-0-0-0-2--|-0-0-0-0-0-0-3---0-0-2---0-0-1--||
    PM........|    PM..........|      PM........|     PM|     PM|


e| |---------------------------------|-----------------------------||
B| *---------------------------------|-----------------------------*|
G|3|---------------------------------|-----------------------------||
D|x|---------------------------------|-----------------------------||
A| *--------------------------4---5--|------------5\4--5\4---------*|
E| |----0--3--5p0-0-0-3---0-0-2---3--|-0--3--5p0--3\2--3\2---------||
      PM        PM........|

e|----------------------------------|-------------------------------|
B|----------------------------------|------------------R------------|
G|----------------------------------|------------------E------------|
D|----------------------------------|------------------S------------|
A|--------------------------4---5---|--------------4---T------------|
E|---0--3---5p0-0-0-3---0-0-2---3---|-0---3---5p0--2----------------|
     PM         PM........|                     PM

Verse 1
e||----------------------------------|--------------------------------|
B|*----------------------------------|--------------------------------|
G||----------------------------------|--------------------------------|
D||----------------------------------|--------------------------------|
A|*--------------5----------------4--|--------------5------4-------4--|
E||--0-0-0-0-0-0-3--0-0-0-0-0-0-0-2--|--0-0-0-0-0-0-3--0-0-2---0-0-2--|
    PM........|    PM..........|       PM........|    PM|     PM|
                Do               on                to     o-      -thers
                But              what              the    hell     is

e|----------------------------------|--------------------------------||
B|----------------------------------|--------------------------------*|
G|----------------------------------|--------------------------------||
D|----------------------------------|--------------------------------||
A|--------------5----------------4--|-------------5-------4-------3--*|
E|--0-0-0-0-0-0-3--0-0-0-0-0-0-0-2--|-0-0-0-0-0-0-3---0-0-2---0-0-1--||
    PM........|    PM..........|      PM........|     PM|     PM|
                as              they've          done     to     you
                this            world            come-   -ing    to

e|---------------------------------|-----------------------------|
B|---------------------------------|-----------------------------|
G|---------------------------------|-----------------------------|
D|---------------------------------|-----------------------------|
A|--------------------------4---5--|------------5\4--5\4---------|
E|----0--3--5p0-0-0-3---0-0-2---3--|-0--3--5p0--3\2--3\2---------|
      PM        PM........|

e|----------------------------------|-------------------------------|
B|----------------------------------|------------------R------------|
G|----------------------------------|------------------E------------|
D|----------------------------------|------------------S------------|
A|--------------------------4---5---|--------------4---T------------|
E|---0--3---5p0-0-0-3---0-0-2---3---|-0---3---5p0--2----------------|
     PM         PM........|                     PM

e||----------------------------------|--------------------------------|
B|*----------------------------------|--------------------------------|
G||----------------------------------|--------------------------------|
D||----------------------------------|--------------------------------|
A|*--------------5----------------4--|--------------5------4-------4--|
E||--0-0-0-0-0-0-3--0-0-0-0-0-0-0-2--|--0-0-0-0-0-0-3--0-0-2---0-0-2--|
    PM........|    PM..........|       PM........|    PM|     PM|
                Blow             The               U-     -ni-    -verse
                Nu-             -cle-              -ar     war-   -fare

e|----------------------------------|--------------------------------||
B|----------------------------------|--------------------------------*|
G|----------------------------------|--------------------------------||
D|----------------------------------|--------------------------------||
A|--------------5----------------4--|-------------5-------4-------3--*|
E|--0-0-0-0-0-0-3--0-0-0-0-0-0-0-2--|-0-0-0-0-0-0-3---0-0-2---0-0-1--||
    PM........|    PM..........|      PM........|     PM|     PM|
                into            no-              -th-    -ing-   -ness
                shall           lay               us      to      rest

e|---------------------------------|-----------------------------|
B|---------------------------------|-----------------------------|
G|---------------------------------|-----------------------------|
D|---------------------------------|-----------------------------|
A|--------------------------4---5--|------------5\4--5\4---------|
E|----0--3--5p0-0-0-3---0-0-2---3--|-0--3--5p0--3\2--3\2---------|
      PM        PM........|

e|----------------------------------|-------------------------------|
B|----------------------------------|------------------R------------|
G|----------------------------------|------------------E------------|
D|----------------------------------|------------------S------------|
A|--------------------------4---5---|--------------4---T------------|
E|---0--3---5p0-0-0-3---0-0-2---3---|-0---3---5p0--2----------------|
     PM         PM........|                     PM

Chorus
e| |----------------------------------|----------------------------------||
B| *----------------------------------|----------------------------------*|
G|4|----------------------------------|----------------------------------||
D|x|-------------------3-----4-----3--|----------------------------------||
A| *-2-----5-----------1-----2-----1--|-1-1-1-1-1-1-1-1-1-1-1-1-1-1-1-1--*|
E| |-0-----3-----0--------------------|----------------------------------||
               PM                     PM............................|
    Fight  fi- -re     with  fi-  -re
    En-   -ding is     ne-  -a-   -re
    Fight  fi- -re     with  fi-  -re
    Bur-  -st- -ing    with  fe-  -ar

e|----------------------------------|
B|--R-------------------------------|
G|--E-------------------------------|
D|--S-------------------------------|
A|--T-------------------------------|
E|----------------------------------|
        We all shall die!

e||----------------------------------|--------------------------------|
B|*----------------------------------|--------------------------------|
G||----------------------------------|--------------------------------|
D||----------------------------------|--------------------------------|
A|*--------------5----------------4--|--------------5------4-------4--|
E||--0-0-0-0-0-0-3--0-0-0-0-0-0-0-2--|--0-0-0-0-0-0-3--0-0-2---0-0-2--|
    PM........|    PM..........|       PM........|    PM|     PM|


e|----------------------------------|--------------------------------||
B|----------------------------------|--------------------------------*|
G|----------------------------------|--------------------------------||
D|----------------------------------|--------------------------------||
A|--------------5----------------4--|-------------5-------4-------3--*|
E|--0-0-0-0-0-0-3--0-0-0-0-0-0-0-2--|-0-0-0-0-0-0-3---0-0-2---0-0-1--||
    PM........|    PM..........|      PM........|     PM|     PM|

Verse 3
e||----------------------------------|--------------------------------|
B|*----------------------------------|--------------------------------|
G||----------------------------------|--------------------------------|
D||----------------------------------|--------------------------------|
A|*--------------5----------------4--|--------------5------4-------4--|
E||--0-0-0-0-0-0-3--0-0-0-0-0-0-0-2--|--0-0-0-0-0-0-3--0-0-2---0-0-2--|
    PM........|    PM..........|       PM........|    PM|     PM|
                Time              is                like   a       fuse
                Ar-              -ma               -ged-  -don's   here

e|----------------------------------|--------------------------------||
B|----------------------------------|--------------------------------*|
G|----------------------------------|--------------------------------||
D|----------------------------------|--------------------------------||
A|--------------5----------------4--|-------------5-------4-------3--*|
E|--0-0-0-0-0-0-3--0-0-0-0-0-0-0-2--|-0-0-0-0-0-0-3---0-0-2---0-0-1--||
    PM........|    PM..........|      PM........|     PM|     PM|
                short            and              bur-   -ning    fast
                like             said             in      the     past


e|---------------------------------|-----------------------------|
B|---------------------------------|-----------------------------|
G|---------------------------------|-----------------------------|
D|---------------------------------|-----------------------------|
A|--------------------------4---5--|------------5\4--5\4---------|
E|----0--3--5p0-0-0-3---0-0-2---3--|-0--3--5p0--3\2--3\2---------|
      PM        PM........|

e|----------------------------------|-------------------------------|
B|----------------------------------|------------------R------------|
G|----------------------------------|------------------E------------|
D|----------------------------------|------------------S------------|
A|--------------------------4---5---|--------------4---T------------|
E|---0--3---5p0-0-0-3---0-0-2---3---|-0---3---5p0--2----------------|
     PM         PM........|                     PM

Chorus
e| |----------------------------------|----------------------------------||
B| *----------------------------------|----------------------------------*|
G|4|----------------------------------|----------------------------------||
D|x|-------------------3-----4-----3--|----------------------------------||
A| *-2-----5-----------1-----2-----1--|-1-1-1-1-1-1-1-1-1-1-1-1-1-1-1-1--*|
E| |-0-----3-----0--------------------|----------------------------------||
               PM                     PM............................|
    Fight  fi- -re     with  fi-  -re
    En-   -ding is     ne-  -a-   -re
    Fight  fi- -re     with  fi-  -re
    Bur-  -st- -ing    with  fe-  -ar


Bridge to Solo
e|-------------------|------------------|----------------------|
B|-----R-------------|------------------|----------------------|
G|-----E-------------|--2---------------|-(2)------------------|
D|--3--S----7--5--4--|--2---------------|-(2)------------2--4--|
A|--1--T----5--3--2--|--0---------------|-(0)---------5--0--2--|
E|-------------------|------------------|-------------3--------|
            PM..|       LR.....................|      PM....|

e|-------------------|---------------------|
B|-------------------|---------------------|
G|--5----------------|-(5)-----------------|
D|--5----------------|-(5)--------4-----2--|
A|--3----------------|-(3)--------2--5--0--|
E|-------------------|---------------3-----|
    LR......................|



Solo
Guitar 2
e|----------------------------------------------------------|
B|----------------------------------------------------------|
G|-9--9--9--9--9--9--9--9--9--9--9--9--9b10-9b10-9b10-9b10--|
D|----------------------------------------------------------|
A|----------------------------------------------------------|
E|----------------------------------------------------------|

e|-----------------------------------------------------------------------|
B|-----------------------------------------------------------------------|
G|9b11-9b11-9b11-9b11-9b11-9b11-9b11-9b11-9b11----7-9b11-(9b11)-(9b11)-7-|
D|-----------------------------------------------------------------------|
A|-----------------------------------------------------------------------|
E|-----------------------------------------------------------------------|


e|-------------------------------| |--10-7--------------------------------------------|
B|-------------------------------| |-------10-7---------------------------------------|
G|---------------9p7-----9p7-9p7-|6|------------9-7---7-9-7---7-9-7---7-9-7-----------|
D|--9----------9------9----------|/|----------------9-------9-------9-------9-7-------|
A|-------------------------------|4|--------------------------------------------9-7---|
E|-------------------------------| |------------------------------------------------8-|

e|--------------------------------------| |------------------9p7h9--------------|
B|--------------------------------------| |--9p7-9-7---7-9-7-------10p7---------|
G|----------------------------------7-9-|4|----------9------------------9p7-7h9-|
D|------------------5-7--5h7-7-9--------|/|-------------------------------------|
A|-------------5-7----------------------|4|-------------------------------------|
E|5/7------5h7--------------------------| |-------------------------------------|

e|------------------------------------|------------------------|------------12---------14-|
B|--7-9-7-------7-9--9-7---9-7-----9\-|------------------------|--------14--------/15-----|
G|--------9-7-9----------9-----7-9----|--9----------7----------|--14----------------------|
D|------------------------------------|----------9----------16-|--------------------------|
A|------------------------------------|------------------------|--------------------------|
E|------------------------------------|------------------------|--------------------------|

e|--15p14-14-14-15p14-17p14-19p14-17b19-(17b19r17)-17p14----14-|
B|-------------------------------------------------------15----|
G|-------------------------------------------------------------|
D|-------------------------------------------------------------|
A|-------------------------------------------------------------|
E|-------------------------------------------------------------|

e| |--17p14-19p14-17p14----14-19-----19-----19-----19----|
B| |--------------------17-------------------------------|
G|6|-----------------------------------------------------|
D|/|-----------------------------------------------------|
A|4|-----------------------------------------------------|
E| |-----------------------------------------------------|

e|--17b18----(r17)-17--14--17p14-15p14-15p14----------------------------------|
B|-------------------------------------------17-14-17p15p14-14-16----14-------|
G|----------------------------------------------------------------16----16-14-|
D|----------------------------------------------------------------------------|
A|----------------------------------------------------------------------------|
E|----------------------------------------------------------------------------|

e| |--------------------------------------------------|
B| |--------------------------------------------------|
G|4|--14-16-12-11-14-12-11----11----------------------|
D|/|-----------------------14----14-12-11-12-11-------|
A|4|--------------------------------------------14-12-|
E| |--------------------------------------------------|

e|----------------------------------------------------------------------|
B|----------------------------------------------------------------------|
G|----------------------------------------------------------------------|
D|--10-12-10----10------------------------------------------------------|
A|-----------12----12-10-12-10-12-10------------------------------------|
E|-----------------------------------12-10-12-10/12---------------------|


Solo-Backing / Harmony-Backing
Guitar 1
e||-------------------|-------------------|-------------------|
B|*-------------------|-------------------|-------------------|
G||-------------------|-------------------|-------------------|
D||--2----------------|-------------------|-------------------|
A|*--2----------------|-------------------|-------------------|
E||--0-0-0-00-0-00-00-|--0-0-0-00-0-00-00-|--0-0-0-00-0-00-00-|
       PM...................................................|

e| |---------------------------|
B| |---------------------------|
G|6|---------------------------|
D|/|---------------------------|
A|4|---------------------------|
E| |--0-0-0-00-0-00-00-0-00-00-|
      PM.....................|

e|---------------------------| |-------------------|-------------------||
B|---------------------------| |-------------------|-------------------*|
G|---------------------------|4|-------------------|-------------------||
D|--7------------------------|/|--5----------------|--4-4--------------||
A|--7------------------------|4|--5----------------|--4-4--------------*|
E|--5-5-5-55-5-55-55-5-55-55-| |--3-3-3-33-3-33-33-|--2-2-2-22-2-22-22-||
      PM.............................................................|

Solo-Bridge / Harmony-Bridge
e||------------------------------------------||
B|*------------------------------------------*|
G||------------------------------------------||
D||------------------------------------------||
A|*--2--4---5--2--4---5----------------------*|
E||--0--2---3--0--2---3---0--2---3--0--2--3--||
               PM                   PM

Harmony Duett
  Guitar 1
e||--19-19-19--15--17--14—-15--12--14-----|--15--12--14------14-------------|----------------------------|
B|*------------------------------------15-|--------------15------14--15--13-|-13--12----13--13--12----13-|
G||---------------------------------------|---------------------------------|----------------------------|
D||---------------------------------------|---------------------------------|----------------------------|
A|*---------------------------------------|---------------------------------|----------------------------|
E||---------------------------------------|---------------------------------|----------------------------|
 |
 |Guitar 2
e||--15-15-15--12--14--12-----------------|--12-----------------------------|----------------------------|
B|*------------------------15--14--15--12-|------14--15--12--12------12-----|----------------------------|
G||---------------------------------------|----------------------14------14-|-14--12----14--14--12----14-|
D||---------------------------------------|---------------------------------|----------------------------|
A|*---------------------------------------|---------------------------------|----------------------------|
E||---------------------------------------|---------------------------------|----------------------------|

  Guitar 1
e| |10--12p10-12p10-------------------10--12p10-12p10----|-----------------12--10--------------------------|
B| |----------------13--13--12----13------------------13-|-13--10----12-13---------13--12--12--10----12-13-|
G|6|-----------------------------------------------------|-------------------------------------------------|
D|/|-----------------------------------------------------|-------------------------------------------------|
A|4|-----------------------------------------------------|-------------------------------------------------|
E| |-----------------------------------------------------|-------------------------------------------------|
 |
 |Guitar 2
e| |-----------------------------------------------------|-------------------------------------------------|
B| |12—-13p12-13p12-------------------12--13p12-13p12----|-----------------13--12--------------------------|
G|6|----------------14--14--12----14------------------14-|-14--11----12-14---------14--12--12--11----12-14-|
D|/|-----------------------------------------------------|-------------------------------------------------|
A|4|-----------------------------------------------------|-------------------------------------------------|
E| |-----------------------------------------------------|-------------------------------------------------|

  Guitar 1
e| |--10------------------------------|--------------------------10------||
B| |------13--12--10--10--12----------|(12)--10-13-13--12h13-10------12--*|
G|4|----------------------------------|----------------------------------||
D|/|----------------------------------|----------------------------------||
A|4|----------------------------------|----------------------------------*|
E| |----------------------------------|----------------------------------||
 |
 |Guitar 2
e| |----------------------------------|----------------------------------||
B| |--12------------------------------|--------------------------12------*|
G|4|------14--12--11--11--12----------|(12)--11-14-14—-12h14-11------12--||
D|/|----------------------------------|----------------------------------||
A|4|----------------------------------|----------------------------------*|
E| |----------------------------------|----------------------------------||

Guitar 1 + 2
Solo-Bridge / Harmony-Bridge
e||------------------------------------------||
B|*------------------------------------------*|
G||------------------------------------------||
D||------------------------------------------||
A|*--2--4---5--2--4---5----------------------*|
E||--0--2---3--0--2---3---0--2---3--0--2--3--||
               PM                   PM

                                                Drums only
e|---------------------|----------------------|----------------------|-----------------------|
B|---------------------|----------------------|----------------------|-----------------------|
G|---------------------|----------------------|----------------------|-----------------------|
D|--2------------------|----------------------|----------------------|-----------------------|
A|--2------------------|----------------------|----------------------|-----------------------|
E|--0------------------|----------------------|----------------------|-----------------------|
    LR.....................................|

  Guitar 1
e|----------------------------------|--------------------------------|
B|----------------------------------|--------------------------------|
G|----------------------------------|--------------------------------|
D|----------------------------------|--------------------------------|
A|----------------------------------|--------------------------------|
E|----------------------------------|--------------------------------|
 |
 |Guitar 2
e|----------------------------------|--------------------------------|
B|----------------------------------|--------------------------------|
G|----------------------------------|--------------------------------|
D|----------------------------------|--------------------------------|
A|--------------5----------------4--|--------------5------4-------4--|
E|--0-0-0-0-0-0-3--0-0-0-0-0-0-0-2--|--0-0-0-0-0-0-3--0-0-2---0-0-2--|
    PM........|    PM..........|       PM........|    PM|     PM|

Guitar 1
e|----------------------------------|--------------------------------|
B|----------------------------------|--------------------------------|
G|----------------------------------|--------------------------------|
D|----------------------------------|--------------------------------|
A|----------------------------------|--------------------------------|
E|----------------------------------|--------------------------------|
 |
 |Guitar 2
e|----------------------------------|--------------------------------|
B|----------------------------------|--------------------------------|
G|----------------------------------|--------------------------------|
D|----------------------------------|--------------------------------|
A|--------------5----------------4--|-------------5-------4-------3--|
E|--0-0-0-0-0-0-3--0-0-0-0-0-0-0-2--|-0-0-0-0-0-0-3---0-0-2---0-0-1--|
    PM........|    PM..........|      PM........|     PM|     PM|

  Guitar 1
e|----------------------------------|--------------------------------|
B|----------------------------------|--------------------------------|
G|----------------------------------|--------------------------------|
D|----------------------------------|--------------------------------|
A|--8-------------------------------|--------------------------------|
E|----------------------------------|--------------------------------|
 | LR...............................................................
 |Guitar 2
e|----------------------------------|--------------------------------|
B|----------------------------------|--------------------------------|
G|----------------------------------|--------------------------------|
D|----------------------------------|--------------------------------|
A|--------------5----------------4--|--------------5------4-------4--|
E|--0-0-0-0-0-0-3--0-0-0-0-0-0-0-2--|--0-0-0-0-0-0-3--0-0-2---0-0-2--|
    PM........|    PM..........|       PM........|    PM|     PM|

  Guitar 1
e|----------------------------------| |-----------------------------------|
B|----------------------------------| |-----------------------------------|
G|----------------------------------|5|-----------------------------------|
D|----------------------------------|/|-----------------------------------|
A|----------------------------------|4|-----------------------------------|
E|----------------------------------| |-----------------------------------|
 |  LR..........................................|
 |Guitar 2
e|----------------------------------| |-----------------------------------|
B|----------------------------------| |--------------------------------R--|
G|----------------------------------|5|--------------------------------E--|
D|----------------------------------|/|--------------------------------S--|
A|--------------5----------------4--|4|-------------5-------4-------3--T--|
E|--0-0-0-0-0-0-3--0-0-0-0-0-0-0-2--| |-0-0-0-0-0-0-3---0-0-2---0-0-1-----|
    PM........|    PM..........|        PM........|     PM|     PM|

Verse 4
Guitar 1 + 2
e| ||----------------------------------|--------------------------------|
B| |*----------------------------------|--------------------------------|
G|4||----------------------------------|--------------------------------|
D|/||----------------------------------|--------------------------------|
A|4|*--------------5----------------4--|--------------5------4-------4--|
E| ||--0-0-0-0-0-0-3--0-0-0-0-0-0-0-2--|--0-0-0-0-0-0-3--0-0-2---0-0-2--|
       PM........|    PM..........|       PM........|    PM|     PM|
                Soon              to                fill   our     lungs
                The              Gods               are   laugh-  -ing

e|----------------------------------|--------------------------------||
B|----------------------------------|--------------------------------*|
G|----------------------------------|--------------------------------||
D|----------------------------------|--------------------------------||
A|--------------5----------------4--|-------------5-------4-------3--*|
E|--0-0-0-0-0-0-3--0-0-0-0-0-0-0-2--|-0-0-0-0-0-0-3---0-0-2---0-0-1--||
    PM........|    PM..........|      PM........|     PM|     PM|
                the              hot              winds   of      death
                so               take             your    last    breath

e|---------------------------------|-----------------------------|
B|---------------------------------|-----------------------------|
G|---------------------------------|-----------------------------|
D|---------------------------------|-----------------------------|
A|--------------------------4---5--|------------5\4--5\4---------|
E|----0--3--5p0-0-0-3---0-0-2---3--|-0--3--5p0--3\2--3\2---------|
      PM        PM........|

e|----------------------------------|-------------------------------|
B|----------------------------------|------------------R------------|
G|----------------------------------|------------------E------------|
D|----------------------------------|------------------S------------|
A|--------------------------4---5---|--------------4---T------------|
E|---0--3---5p0-0-0-3---0-0-2---3---|-0---3---5p0--2----------------|
     PM         PM........|                     PM

Chorus
e| |----------------------------------|----------------------------------||
B| *----------------------------------|----------------------------------*|
G|4|----------------------------------|----------------------------------||
D|x|-------------------3-----4-----3--|----------------------------------||
A| *-2-----5-----------1-----2-----1--|-1-1-1-1-1-1-1-1-1-1-1-1-1-1-1-1--*|
E| |-0-----3-----0--------------------|----------------------------------||
               PM                     PM............................|
    Fight  fi- -re     with  fi-  -re
    En-   -ding is     ne-  -a-   -re
    Fight  fi- -re     with  fi-  -re
    Bur-  -st- -ing    with  fe-  -ar

Outro
e| |-----------------------------------||
B| *-----------------------------------*|
G|8|-----------------------------------||
D|x|--------------------3-----4-----3--||
A| *--2-----5-----------1-----2-----1--*|
E| |--0-----3-----0--------------------||
                  PM
    Fight  fi- -re    with  fi-  -re (8x)


e| |-----------------------------------||
B| *-----------------------------------*|
G|8|-----------------------------------||
D|x|--------------------3-----4-----3--||
A| *--2-----5-----------1-----2-----1--*|
E| |--0-----3-----0--------------------||
                  PM
    Fight! (just on the 1st E5 Chord)

  Guitar 1
e|-------------------------------|
B|-------------------------------|
G|--3----------------------------|
D|--3----------------------------|
A|--1----------------------------|
E|-------------------------------|
 |
 |Guitar 2
e|-------------------------------|
B|-------------------------------|
G|-#3----------------------------|
D|-------------------------------|
A|-------------------------------|
E|-------------------------------|


Guitar 1 + 2
e|--------------------|-----------------------------|----------------|
B|--------------------|-----------------------------|----------------|
G|--------------------|--9--9--9--9----9--9--9--9---|--12\-----------|
D|-2------------------|--9--9--9--9----9--9--9--9---|--12\-----------|
A|-2------------------|--7--7--7--7----7--7--7--7---|--10\-----------|
E|-0------------------|-----------------------------|----------------|

-----------------
Tabulature Legend
-----------------
 h   - hammer-on
 p   - pull-off
 b   - bend
 PM  - palm muting
 LR  - let ring
 |*  - repeat (x-times)
 /   - slide up
 \   - slide down
 ()  - ghost-note
Suggest correction
Creating personal tab
Creating personal tab
You can edit any tab online and save it as your Personal.

You can edit, replace or remove any tab part or add personal notes – all changes will be seen only by you.

Personal tabs can be accessed anytime from any device, even offline.
Learn more »
Give kudos to tab author, rate the tab!
1 2 3 4 5
comments
print report bad tab
guest
You may want to rate the tab now too:
select rating
Wanna post a correction for this tab? Suggest correction