Oops, an error
Loading. Please wait.

For Whom The Bell Tolls Bass Tab

version 1
400,896 views 771 this week
53 commentsread comments
1 2 3 4 5
x 58
add to favorites
launch autoscroll
font size
0
reset
guitar tuner
Autoscroll
slow
fast
+/-
esc
set tempo
stop
Help us to improve Ultimate-Guitar.com Take our survey!
×
Normal Tune
Beat: 120


[Intro]

 4/4                              
G|--------------------------------|--------------------------------|
D|--------------------------------|--------------------------------|
A|--------------------------------|--------------------------------|
E|--------------------------------|-----------------2-2-----2-2----|

There are two basses, the first plays the higher note and starting E.
The second plays ending F#.

 With distortion and wah wah
G|--------19-18-17-16-------19p16-|--------19----------------------|
D|*-------------------------------|17--16-------------------------*|
A|*-------------------------------|------------17--16--------(16)\*|
E|-0------------------------------|(0)--------------2--2----2--2---|(x8)

 Normal Bass
G|--------------------------------|--------------------------------|
D|*-------------------------------|--------------------------------|
A|*-------------------------------|-----------------------------0--|
E|-0---3---2---1---0---3---2---1--|-0---3---2---1---0---2---3------|

G|--------------------------------|--------------------------------|
D|--------------------------------|-------------------------------*|
A|--------------------------------|-----------------------------2-*|
E|-0---3---2---1---0---3---2---1--|-0---3---2---1---0---2---3------|(x4)

G|--------------------------------|--------------------------------|
D|--------------------------------|--------------------------------|
A|--------------------------------|--------------------------------|
E|-0------------------------------|(0)-----------------------------|


[Fig.1]

G|--------------------------------|--------------------------------|
D|*----------tripl-----------tripl|-----------tripl-----------tripl|
A|*>------------------------------|--------------------------------|
E|-0---------0-0-0-0---------0-0-0|-0---------0-0-0-0---------0-0-0|

G|--------------------------------|--------------------------------|
D|-----------tripl-----------tripl|--------------------------------|
A|->------------------------------|->------------------------------|
E|-3---------3-3-3-3---------3-3-3|-3-------------------------12\--|

G|--------------------------------|--------------------------------|
D|-----------tripl-----------tripl|-----------tripl-----------tripl|
A|->------------------------------|--------------------------------|
E|-0---------0-0-0-0---------0-0-0|-0---------0-0-0-0---------0-0-0|

                                   1.                           (1)
G|--------------------------------|-tripl-----------tripl----------|
D|-----------tripl-----------tripl|------->--------------->-------*|
A|->------------------------------|-3-3-3-3---------0-0-0-0-------*|
E|-3---------3-3-3-3---------3-3-3|--------------------------------|

                                   2.                  (2) end Fig.1
                                  |---tripl-----------tripl--------|
                                  |->------------------------------|
                                  |-3-3-3-3---------0-0-0-12-\-----|
                                  |--------------------------------|

[Fig.2]

G|--------------------------------|--------------------------------|
D|*tripl-----------tripl----------|-tripl--------------------------|
A|*------>--------------->--------|------->--------->------->------|
E|-0-0-0-3---------0-0-0-5--------|-0-0-0-3-------0-6-------2------|

                                                          end Fig.2|
G|--------------------------------|--------------------------------|
D|-tripl-----------tripl----------|-tripl--tripl------------------*|
A|------->--------------->--------|-------->-------->------>----->*|
E|-0-0-0-3---------0-0-0-5--------|-0-0-0--3-0-0----6------2-----1-|


[Verse 1, 2]

Repeat Fig.1


[Chorus]

Repeat Fig.2 x 2  (To Coda at the end of second chorus)


[Interlude]

(between first chorus and second verse)|

G|--------------------------------|--------------------------------|
D|*----------tripl-----------tripl|-----------tripl-----------tripl|
A|*>------------------------------|--------------------------------|
E|-0---------0-0-0-0---------0-0-0|-0---------0-0-0-0---------0-0-0|

G|--------------------------------|--------------------------------|
D|-----------tripl----------------|-----------tripl-----------tripl|
A|->------------------------------|->------------------------------|
E|-0---------0-0-0-0---------/12\-|-3---------3-3-3-3---------3-3-3|

                                   1.                           (1)
G|--------------------------------|-----------tripl----------------|
D|-----------tripl-----------tripl|->-----------------------------*|
A|->------------------------------|-2---------2-2-2-2---------/14\*|
E|-0---------0-0-0-0---------0-0-0|--------------------------------|

                                    2.                           (2)
                                   |-----------tripl----------------|
                                   |->------------------------------|
                                   |-2---------2-2-2-2-----------2\-|
                                   |--------------------------------|


[Coda]

G|--------------------------------|--------------------------------|
D|*-------------------------------|--------------------------------|
A|*-------------------------------|--------------------------------|
E|-0---------------2---2----------|-0---------------2---2----------|

 2/4
G|--------------------------------|
D|-------------------------------*|
A|-------------------------------*|
E|-3---3--------------------------| End (fade out)


************************************

| (n)  Ghost note
| p    Pull-off
| >    Accented note
| /    Slide up
| \    Slide down

************************************
Suggest correction
comments
print report bad tab
53 comments total. Showing first comments. show 1 bad comment
-2 reply
Barroom Hero 10 Jan 17, 2005 12:00 AM

2 basses? yeah right.....just a guitar with some heavy gauge strings....

-1 reply
warlockmaster21 80 Aug 07, 2005 12:00 AM

no

guest
You may want to rate the tab now too:
select rating
Wanna post a correction for this tab? Suggest correction