Oops, an error
Loading. Please wait.

For Whom The Bell Tolls Live Bass Tab

version 1
version 1

Intro

Interactive

15,834 views 39 this week
2 commentsread comments
1 2 3 4 5
excellent!
x 5
add to favorites
launch autoscroll
font size
0
reset
guitar tuner
Autoscroll
slow
fast
+/-
esc
set tempo
stop
Help us to improve Ultimate-Guitar.com Take our survey!
×
Author
Difficulty
advanced
----------------------------------------------------------------------------
                   /\/\ETALLIC/-\
----------------------------------------------------------------------------
This is the intro that was played by Cliff Burton, live 1985 31 august.

G|--3-6-5--5-8-7--9-12--11---14--15--14----15--18--17---17--22--21-|
D|-----------------------------------------------------------------|
A|-----------------------------------------------------------------|
E|-----------------------------------------------------------------|

G|--17--15--16---14--15--14--9--12--11--9--7~-|
D|--------------------------------------------|
A|--------------------------------------------|
E|--------------------------------------------|

Distortion.

G|------------------------------------------------------------------------------------------|
D|----3\9---10---10---10---10-12-10-12-10-12-10-12\(4)/15-17-15-17-15-17-15-17-15-17-15-17~-|
A|--------------12---12---12----------------------------------------------------------------|
E|------------------------------------------------------------------------------------------|

G|--------17---15--------------------------------|
D|-----15---17---15------------------------------|
A|-------------------15-17-15-17-15-17-15-17~----|
E|---------------------------------------------0~|

G|-----------------19-18-17-16~--h19h16----------19-----------------|
D|----------------------------------------17-16---------------------|
A|---------------------------------------------------17-16~--/------|
E|-2-2--2-2--0~--------------------------------------------------0--|


G|--19-18-17-16~-16--19---19---19---19---19---19---------|
D|---------------------19---19---19---19---19---19-------|
A|-------------------------------------------------------|
E|--------------------------------------------------0----|


G|--19-18-17-16~--h19h16---------19-----------------19-18-17-16~--h19h16--------19----------|
D|------------------------17-16-------------------------------------------17-16-------------|
A|-----------------------------------17-16~----------------------------------------19-19~---|
E|-----------------------------------------17/9---------------------------------------------|

G|-19-18-17-16~--h19h16-------19--------------19-18-17-16~-16-| |-19-|
D|----------------------17-16---------------------------------| |--19| x18
A|--------------------------------17-16~--/-------------------| |----|
E|-------------------------------------------0----------------| |----|
Suggest correction
comments
print report bad tab
2 comments total.
0 reply
nolan14 68 wrote on April 4 2013, 09:30 am

Good tab but at one stage he plays
/
|-19-18-17-16-------19----19/|--------------|
|-------------17-16-------------------------|
|----------------------17-------------------|
|-------------------------------------------|

|-19-18-17-16~-16-19^16--19^16--19^16--19^16--19^16--19^16--19^16--19^16--|
|----------------------19-----19-----19-----19-----19-----19-----19-----19|
|-------------------------------------------------------------------------|
|-------------------------------------------------------------------------|

+1 reply
DelcoStratos 844 wrote on May 10 2013, 11:05 am

Yeah, i saw it after have posted the tab, you're right!

guest
You may want to rate the tab now too:
select rating
Please do not post tabs as comments. Select "correction" instead!