Oops, an error
Loading. Please wait.

For Whom The Bell Tolls Bass Tab

version 4
23,662 views 6 this week
6 commentsread comments
1 2 3 4 5
x 9
add to favorites
launch autoscroll
font size
0
reset
guitar tuner
Autoscroll
slow
fast
+/-
esc
set tempo
stop
Help us to improve Ultimate-Guitar.com Take our survey!
×
Author
Well, here I go again, but now with one of the best Burton songs and by his style 
so ¡¡¡Turn the distortion On!!!

Note: You'll need a Wah pedal and some distor over here to get a closest sound

Music Index
~ = Let Ring
B = Full Bend
b = Half Bend
/ = Slide
H = Hammer On
P = Pull Off


Solo & Intro with Wah and distrotion
G[---7~--9-7-9-10-9-10-12-10-12-14-12-14-15-14-15-17-15-17-19-17-19-21B]
D[-9-0~----------------------------------------------------------------]
A[-9-------------------------------------------------------------------]
E[---------------------------------------------------------------------]

G[--21-19-17-19-17-15-17-15-14-15-14-12-14-12-10-12-10-9-10-9-7-9-7b~--]
D[---------------------------------------------------------------------]
A[---------------------------------------------------------------------]
E[---------------------------------------------------------------------]

Here open and close the wah pedal
G[--------------------------------------------------------------]
D[--------------------------------------------------------------]
A[--3/10H11P10H11P10H11P10H11P10H11P10/15H16P15H16P15H16P15H16PB]
E[--------------------------------------------------------------]

G[--------------------------------------]
D[--------15H17-19-17-15----15----------]
A[--15H17----------------17----17-15B/0-]
E[--------------------------------------]


1st part
G[---------19-18-17-16-------19----------]
D[---------------------17-16-------------]
A[------------------------------17-16b---]
E[--17/-0------------------------------0-]


                   ._______________________THIS IS VERY FAST
2nd Part           |
G[---------19-18-17-16-19-16--16-19---16-19---16-19---16-19B]
D[--------------------------19------19------19------19------]
A[----------------------------------------------------------]
E[--17/-0---------------------------------------------------]

3rd Part
G[---------19-18-17-16-------19B-(Bend Too many times)]
D[---------------------17-16--------------------------]
A[----------------------------------------------------]
E[--17/-0-------------------------------------------0-]

Repeat this three parts about 6 or 7 times 
Until The drumms enter...

G[---------19-18-17-16-------------------------]
D[---------------------17-16-19B-19B-17B-------]
A[---------------------------------------------]
E[--17/-0--------------------------------17/-0-]

Pre-verse 
G[----------------------------------]
D[----------------------------------]
A[----------------------------------] repeat x8 times
E[--0-3-2-1-0-3-2-1-0-3-2-1-0-2-3-5-]

G[---------------------------]\
D[---------------------------] \
A[---------------------------]  \
E[-0-000-0-000-0-000-0-000-0-]   \
                                  \
G[---------------------------]     \
D[---------------------------]      \
A[---------------------------]       Repeat this in the rhythm 
E[-3-333-3-333-3-333-3-333-3-]       of the guitars to get the verses
                                    /
                                   /
Final                             /
G[---------------------------]   /
D[---------------------------]  / 
A[-3-333-3-333---------------] /
E[-------------5-555-5-555-5-]/

Chorus  "For whom the Bell Tolls!!"
G[------------------------------------------------]
D[------------------------------------------------]
A[-------------------1----------------------1-----]
E[-000-3-000-5-000-3---2--000-3-000-5-000-3---2-1-]

The final riff is something like this
G[--------------------]
D[--------------------]
A[--------------------]
E[--2-2-0~--2-2-3-3-0~]

Repeat until the end and you're playing Bellz!
Suggest correction
comments
print report bad tab
6 comments total. Showing first comments.
0 reply
Leather Sleeves 71 May 08, 2009 12:51 PM

Which performance is this taken from?

0 reply
RoLv 70 May 09, 2009 01:55 AM

this is from the live performance with Cliff Burton

0 reply
awesome_name 120 Jun 14, 2009 07:26 PM

Hell yea dude.
That video is floating around on youtube and I've been wanting to play that little solo he does in the begining.
I'm not too sure about this part though:
G[--------------------------------------------------------------]
D[--------------------------------------------------------------]
A[--3/10H11P10H11P10H11P10H11P10H11P10/15H16P15H16P15H16P15H16PB]
E[--------------------------------------------------------------]

But its still badass.
5 stars

guest
You may want to rate the tab now too:
select rating
Wanna post a correction for this tab? Suggest correction