Oops, an error
Loading. Please wait.

For Whom The Bell Tolls Tab

version 6
791,672 views 744 this week
117 commentsread comments
1 2 3 4 5
excellent!
x 636
add to favorites
launch autoscroll
font size
0
reset
how to read this tab
guitar tuner
Autoscroll
slow
fast
+/-
esc
set tempo
stop
Help us to improve Ultimate-Guitar.com Take our survey!
×
Metallica
Ride The Lightning
For Whom The Bell Tolls
Tabed By Grimbongmaster

[Intro] x4

Opening Rift

Guitar I&II
e|---------------------------------------------------------------------------------------------|
B|---------------------------------------------------------------------------------------------|
G|---------------------------------------------------------------------------------------------|
D|4-4--4-4--2-(2)----------------------------4-4--4-4--2-(2)-----------------------------------|
A|4-4--4-4--2-(2)----------------------------4-4--4-4--2-(2)-----------------------------------|
E|2-2--2-2--0-(0)----------------------------2-2--2-2--0-(0)-----------------------------------|


  This Is Really Bass Guitar But Heres How To Do It On Guitar

G|---------------------------------------------------------------------------------------------¦
D|-------------/12-11-10-9-(9)/12------12-----------------/12-11-10-9-(9)/12------12-----------¦
A|--------------------------------10-9---------------------------------------10-9--------------¦
E|----------------------------------------10-9-(9)----------------------------------10-9-(9)---¦


e|-------------|
B|-------------|
G|-------------| X4
D|-4--4--2-(2)-|
A|-4--4--2-(2)-|
E|-2--2--0-(0)-|

Then|

e|------|
B|------|
G|------|
D|-4--4-|
A|-4--4-|
E|-2--2-|


e|------------------------------------|
B|------------------------------------|
G|------------------------------------|
D|-2-5-4-3--2-5-4-3--2-5-4-3--2-5-4-5-|   X3
A|-2-5-4-3--2-5-4-3--2-5-4-3--2-5-4-7-|
E|-0-3-2-1--0-3-2-1--0-3-2-1--0-3-2-7-|
 PM. . . .  . . . .  . . . .  . . . .

e|---------------|
B|---------------|
G|---------------|
D|-2-5-4-3-2-(2)-|
A|-2-5-4-3-2-(2)-|
E|-0-3-2-1-0-(0)-|
 PM. . . .


Guitar I  (James)
e|-----------------------------------------------------------------|
B|-----------------------------------------------------------------|
G|-----------------------------------------------------------------|
D|-2-(2)-----------------------------------------------------------|
A|-2-(2)-----------------------------------------------------------|
E|-0-(0)-----------------------------------------------------------|

Guitar II  (Kirk)
e|-----------------------------------------------------------------|
B|-----------------------------------------------------------------|
G|-12-9-11----9-11-12-9-11----9-11-12-9-11----9-11-12-9-11----9-11-|
D|---------12--------------12--------------12--------------12------|
A|-----------------------------------------------------------------|
E|-----------------------------------------------------------------|



Guitar I  (James)
e|-----------------------------------------------------------------|
B|-----------------------------------------------------------------|
G|-----------------------------------------------------------------|
D|-5-(5)---------------------------5-------------------------------|
A|-5-(5)---------------------------5-------------------------------|
E|-3-(3)---------------------------3-------------------------------|

Guitar II  (Kirk)
e|-----------------------------------------------------------------|
B|-----------------------------------------------------------------|
G|-12-9-11----9-11-12-9-11----9-11-12-9-11----9-11-12-9-11----9-11-|
D|---------12--------------12--------------12--------------12------|
A|-----------------------------------------------------------------|
E|-----------------------------------------------------------------|



Guitar I  (James)
e|-----------------------------------------------------------------|
B|-----------------------------------------------------------------|
G|-----------------------------------------------------------------|
D|-2-(2)-----------------------------------------------------------|
A|-2-(2)-----------------------------------------------------------|
E|-0-(0)-----------------------------------------------------------|

Guitar II  (Kirk)
e|-----------------------------------------------------------------|
B|-----------------------------------------------------------------|
G|-12-9-11----9-11-12-9-11----9-11-12-9-11----9-11-12-9-11----9-11-|
D|---------12--------------12--------------12--------------12------|
A|-----------------------------------------------------------------|
E|-----------------------------------------------------------------|



Guitar I  (James)
e|-----------------------------------------------------------------|
B|-----------------------------------------------------------------|
G|-----------------------------------------------------------------|
D|-5-(5)---------------------------10-(10)------------7-(7)--------|
A|-5-(5)---------------------------10-(10)------------7-(7)--------|
E|-3-(3)---------------------------8--(8)-------------5-(5)--------|

Guitar II  (Kirk)
e|-----------------------------------------------------------------|
B|-----------------------------------------------------------------|
G|-12-9-11----9-11-12-9-11----9-11-12-9-11----9-11-12-9-11----9-11-|
D|---------12--------------12--------------12--------------12------|
A|-----------------------------------------------------------------|
E|-----------------------------------------------------------------|



Guitar I  (James)
e|-----------------------------------------------------------------|
B|-----------------------------------------------------------------|
G|-----------------------------------------------------------------|
D|-2-(2)-----------------------------------------------------------|
A|-2-(2)-----------------------------------------------------------|
E|-0-(0)-----------------------------------------------------------|

Guitar II  (Kirk)
e|-----------------------------------------------------------------|
B|-----------------------------------------------------------------|
G|-12-9-11----9-11-12-9-11----9-11-12-9-11----9-11-12-9-11----9-11-|
D|---------12--------------12--------------12--------------12------|
A|-----------------------------------------------------------------|
E|-----------------------------------------------------------------|



Guitar I  (James)
e|-----------------------------------------------------------------|
B|-----------------------------------------------------------------|
G|-----------------------------------------------------------------|
D|-5-(5)---------------------------5-------------------------------|
A|-5-(5)---------------------------5-------------------------------|
E|-3-(3)---------------------------3-------------------------------|

Guitar II  (Kirk)
e|-----------------------------------------------------------------|
B|-----------------------------------------------------------------|
G|-12-9-11----9-11-12-9-11----9-11-12-9-11----9-11-12-9-11----9-11-|
D|---------12--------------12--------------12--------------12------|
A|-----------------------------------------------------------------|
E|-----------------------------------------------------------------|



Guitar I  (James)
e|-----------------------------------------------------------------|
B|-----------------------------------------------------------------|
G|-----------------------------------------------------------------|
D|-2-(2)-----------------------------------------------------------|
A|-2-(2)-----------------------------------------------------------|
E|-0-(0)-----------------------------------------------------------|

Guitar II  (Kirk)
e|-----------------------------------------------------------------|
B|-----------------------------------------------------------------|
G|-12-9-11----9-11-12-9-11----9-11-12-9-11----9-11-12-9-11----9-11-|
D|---------12--------------12--------------12--------------12------|
A|-----------------------------------------------------------------|
E|-----------------------------------------------------------------|



Guitar I  (James)
e|-----------------------------------------------------------------|
B|-----------------------------------------------------------------|
G|-----------------------------------------------------------------|
D|-5-(5)---------------------------10-(10)------------7-(7)--------|
A|-5-(5)---------------------------10-(10)------------7-(7)--------|
E|-3-(3)---------------------------8--(8)-------------5-(5)--------|

Guitar II  (Kirk)
e|-----------------------------------------------------------------|
B|-----------------------------------------------------------------|
G|-12-9-11----9-11-12-9-11----9-11-12-9-11----9-11-12-9-11----9-11-|
D|---------12--------------12--------------12--------------12------|
A|-----------------------------------------------------------------|
E|-----------------------------------------------------------------|


Guitar I&II
e|--------------------------------------------|
B|--------------------------------------------|
G|----------------------------------------3---|
D|-2-2-2-5-(5)--2-2-2-7-(7)--2-2-2-5-(5)--3-4-|
A|-2-2-2-5-(5)--2-2-2-7-(7)--2-2-2-5-(5)--1-4-|
E|-0-0-0-3-(3)--0-0-0-5-(5)--0-0-0-3-(3)----2-|
PM . . .        . . .        . . .

e|----------------------------------------------|
B|----------------------------------------------|
G|----------------------------------------3-----|
D|-2-2-2-5-(5)--2-2-2-7-(7)--2-2-2-5-(5)--3-4-3-|
A|-2-2-2-5-(5)--2-2-2-7-(7)--2-2-2-5-(5)--1-4-3-|
E|-0-0-0-3-(3)--0-0-0-5-(5)--0-0-0-3-(3)----2-1-|
PM . . .        . . .        . . .

e|--------------------------------------------|
B|--------------------------------------------|
G|----------------------------------------3---|
D|-2-2-2-5-(5)--2-2-2-7-(7)--2-2-2-5-(5)--3-4-|
A|-2-2-2-5-(5)--2-2-2-7-(7)--2-2-2-5-(5)--1-4-|
E|-0-0-0-3-(3)--0-0-0-5-(5)--0-0-0-3-(3)----2-|
PM . . .        . . .        . . .

e|----------------------------------------------|
B|----------------------------------------------|
G|----------------------------------------3-----|
D|-2-2-2-5-(5)--2-2-2-7-(7)--2-2-2-5-(5)--3-4-3-|
A|-2-2-2-5-(5)--2-2-2-7-(7)--2-2-2-5-(5)--1-4-3-|
E|-0-0-0-3-(3)--0-0-0-5-(5)--0-0-0-3-(3)----2-1-|
PM . . .        . . .        . . .


[Verse]

e|-----------------------------------------------------------------|
B|-----------------------------------------------------------------|
G|-----------------------------------------------------------------|
D|-2-(2)-----------------------------------------------------------|
A|-2-(2)-----------------------------------------------------------|
E|-0-(0)-----------------------------------------------------------|

e|-----------------------------------------------------------------|
B|-----------------------------------------------------------------|
G|-----------------------------------------------------------------|
D|-5-(5)---------------------------5-------------------------------|
A|-5-(5)---------------------------5-------------------------------|
E|-3-(3)---------------------------3-------------------------------|


e|-----------------------------------------------------------------|
B|-----------------------------------------------------------------|
G|-----------------------------------------------------------------|
D|-2-(2)-----------------------------------------------------------|
A|-2-(2)-----------------------------------------------------------|
E|-0-(0)-----------------------------------------------------------|


e|-----------------------------------------------------------------|
B|-----------------------------------------------------------------|
G|-----------------------------------------------------------------|
D|-5-(5)---------------------------10-(10)------------7-(7)--------|
A|-5-(5)---------------------------10-(10)------------7-(7)--------|
E|-3-(3)---------------------------8--(8)-------------5-(5)--------|


e|-----------------------------------------------------------------|
B|-----------------------------------------------------------------|
G|-----------------------------------------------------------------|
D|-2-(2)-----------------------------------------------------------|
A|-2-(2)-----------------------------------------------------------|
E|-0-(0)-----------------------------------------------------------|

e|-----------------------------------------------------------------|
B|-----------------------------------------------------------------|
G|-----------------------------------------------------------------|
D|-5-(5)---------------------------5-------------------------------|
A|-5-(5)---------------------------5-------------------------------|
E|-3-(3)---------------------------3-------------------------------|


e|-----------------------------------------------------------------|
B|-----------------------------------------------------------------|
G|-----------------------------------------------------------------|
D|-2-(2)-----------------------------------------------------------|
A|-2-(2)-----------------------------------------------------------|
E|-0-(0)-----------------------------------------------------------|


e|-----------------------------------------------------------------|
B|-----------------------------------------------------------------|
G|-----------------------------------------------------------------|
D|-5-(5)---------------------------10-(10)------------7-(7)--------|
A|-5-(5)---------------------------10-(10)------------7-(7)--------|
E|-3-(3)---------------------------8--(8)-------------5-(5)--------|


[Chorus]

e|--------------------------------------------|
B|--------------------------------------------|
G|----------------------------------------3---|
D|-2-2-2-5-(5)--2-2-2-7-(7)--2-2-2-5-(5)--3-4-|
A|-2-2-2-5-(5)--2-2-2-7-(7)--2-2-2-5-(5)--1-4-|
E|-0-0-0-3-(3)--0-0-0-5-(5)--0-0-0-3-(3)----2-|
PM . . .        . . .        . . .

e|----------------------------------------------|
B|----------------------------------------------|
G|----------------------------------------3-----|
D|-2-2-2-5-(5)--2-2-2-7-(7)--2-2-2-5-(5)--3-4-3-|
A|-2-2-2-5-(5)--2-2-2-7-(7)--2-2-2-5-(5)--1-4-3-|
E|-0-0-0-3-(3)--0-0-0-5-(5)--0-0-0-3-(3)----2-1-|
PM . . .        . . .        . . .

e|--------------------------------------------|
B|--------------------------------------------|
G|----------------------------------------3---|
D|-2-2-2-5-(5)--2-2-2-7-(7)--2-2-2-5-(5)--3-4-|
A|-2-2-2-5-(5)--2-2-2-7-(7)--2-2-2-5-(5)--1-4-|
E|-0-0-0-3-(3)--0-0-0-5-(5)--0-0-0-3-(3)----2-|
PM . . .        . . .        . . .

e|----------------------------------------------|
B|----------------------------------------------|
G|----------------------------------------3-----|
D|-2-2-2-5-(5)--2-2-2-7-(7)--2-2-2-5-(5)--3-4-3-|
A|-2-2-2-5-(5)--2-2-2-7-(7)--2-2-2-5-(5)--1-4-3-|
E|-0-0-0-3-(3)--0-0-0-5-(5)--0-0-0-3-(3)----2-1-|
PM . . .        . . .        . . .

[Solo]

Guitar I  (James)
e|---------------------------------|
B|---------------------------------|
G|---------------------------------|
D|-2-(2)-------------------------2-|
A|-2-(2)-------------------------2-|
E|-0-(0)-------------------------0-|

Guitar II  (Kirk)
e|---------------------------------|
B|---------------------------------|
G|-12-9-11----9--------------------|
D|---------12---11-12-9-11----9----|
A|-------------------------12---10-|
E|---------------------------------|



Guitar I  (James)
e|---------------------------------|
B|---------------------------------|
G|---------------------------------|
D|-2-(2)-------------------------5-|
A|-2-(2)-------------------------3-|
E|-0-(0)-------------------------3-|

Guitar II  (Kirk)
e|---------------------------------|
B|---------------------------------|
G|-12-9-11----9--------------------|
D|---------12---11-12-9-11----9----|
A|-------------------------12---10-|
E|---------------------------------|



Guitar I  (James)
e|---------------------------------|
B|---------------------------------|
G|---------------------------------|
D|-5-5-5--5--5-5-5-----------------|
A|-5-5-5--5--5-5-5-----------------|
E|-3-3-3--3--3-3-3-----------------|

Guitar II  (Kirk)
e|---------------------------------|
B|---------------------------------|
G|---------------------------------|
D|-5-5-5--5--5-5-5-----------------|
A|-5-5-5--5--5-5-5-----------------|
E|-3-3-3--3--3-3-3-----------------|



Guitar I  (James)
e|---------------------------------|
B|--------------12------10-------12|
G|-12-9-11----9----12-9----11-12---|
D|---------12----------------------|
A|---------------------------------|
E|---------------------------------|

Guitar II  (Kirk)
e|---------------------------------|
B|---------------------------------|
G|-12-9-11----9--------------------|
D|---------12---11-12-9-11----9----|
A|-------------------------12---10-|
E|---------------------------------|



Guitar I  (James)
e|-----------------------------------|
B|--------------12------10-------12--|
G|-12-9-11----9----12-9----11-12---12|
D|---------12------------------------|
A|-----------------------------------|
E|-----------------------------------|

Guitar II  (Kirk)
e|-----------------------------------|
B|-----------------------------------|
G|-12-9-11----9----------------------|
D|---------12---11-12-9-11----9----5-|
A|-------------------------12---10-5-|
E|---------------------------------3-|



Guitar I  (James)
e|---------------------------------|
B|---------------------------------|
G|---------------------------------|
D|-5-5-5--5--5-5-5-----------------|
A|-5-5-5--5--5-5-5-----------------|
E|-3-3-3--3--3-3-3-----------------|

Guitar II  (Kirk)
e|---------------------------------|
B|---------------------------------|
G|---------------------------------|
D|-5-5-5--5--5-5-5-----------------|
A|-5-5-5--5--5-5-5-----------------|
E|-3-3-3--3--3-3-3-----------------|



Guitar I  (James)
e|---------------------------------|
B|--------------12------10-------12|
G|-12-9-11----9----12-9----11-12---|
D|---------12----------------------|
A|---------------------------------|
E|---------------------------------|

Guitar II  (Kirk)
e|---------------------------------|
B|---------------------------------|
G|-12-9-11----9--------------------|
D|---------12---11-12-9-11----9----|
A|-------------------------12---10-|
E|---------------------------------|


[Verse]

e|-----------------------------------------------------------------|
B|-----------------------------------------------------------------|
G|-----------------------------------------------------------------|
D|-2-(2)-----------------------------------------------------------|
A|-2-(2)-----------------------------------------------------------|
E|-0-(0)-----------------------------------------------------------|

e|-----------------------------------------------------------------|
B|-----------------------------------------------------------------|
G|-----------------------------------------------------------------|
D|-5-(5)---------------------------5-------------------------------|
A|-5-(5)---------------------------5-------------------------------|
E|-3-(3)---------------------------3-------------------------------|


e|-----------------------------------------------------------------|
B|-----------------------------------------------------------------|
G|-----------------------------------------------------------------|
D|-2-(2)-----------------------------------------------------------|
A|-2-(2)-----------------------------------------------------------|
E|-0-(0)-----------------------------------------------------------|


e|-----------------------------------------------------------------|
B|-----------------------------------------------------------------|
G|-----------------------------------------------------------------|
D|-5-(5)---------------------------10-(10)------------7-(7)--------|
A|-5-(5)---------------------------10-(10)------------7-(7)--------|
E|-3-(3)---------------------------8--(8)-------------5-(5)--------|


e|-----------------------------------------------------------------|
B|-----------------------------------------------------------------|
G|-----------------------------------------------------------------|
D|-2-(2)-----------------------------------------------------------|
A|-2-(2)-----------------------------------------------------------|
E|-0-(0)-----------------------------------------------------------|

e|-----------------------------------------------------------------|
B|-----------------------------------------------------------------|
G|-----------------------------------------------------------------|
D|-5-(5)---------------------------5-------------------------------|
A|-5-(5)---------------------------5-------------------------------|
E|-3-(3)---------------------------3-------------------------------|


e|-----------------------------------------------------------------|
B|-----------------------------------------------------------------|
G|-----------------------------------------------------------------|
D|-2-(2)-----------------------------------------------------------|
A|-2-(2)-----------------------------------------------------------|
E|-0-(0)-----------------------------------------------------------|


e|-----------------------------------------------------------------|
B|-----------------------------------------------------------------|
G|-----------------------------------------------------------------|
D|-5-(5)---------------------------10-(10)------------7-(7)--------|
A|-5-(5)---------------------------10-(10)------------7-(7)--------|
E|-3-(3)---------------------------8--(8)-------------5-(5)--------|


[Chorus]

e|--------------------------------------------|
B|--------------------------------------------|
G|----------------------------------------3---|
D|-2-2-2-5-(5)--2-2-2-7-(7)--2-2-2-5-(5)--3-4-|
A|-2-2-2-5-(5)--2-2-2-7-(7)--2-2-2-5-(5)--1-4-|
E|-0-0-0-3-(3)--0-0-0-5-(5)--0-0-0-3-(3)----2-|
PM . . .        . . .        . . .


e|----------------------------------------------|
B|----------------------------------------------|
G|----------------------------------------3-----|
D|-2-2-2-5-(5)--2-2-2-7-(7)--2-2-2-5-(5)--3-4-3-|
A|-2-2-2-5-(5)--2-2-2-7-(7)--2-2-2-5-(5)--1-4-3-|
E|-0-0-0-3-(3)--0-0-0-5-(5)--0-0-0-3-(3)----2-1-|
PM . . .        . . .        . . .


e|--------------------------------------------|
B|--------------------------------------------|
G|----------------------------------------3---|
D|-2-2-2-5-(5)--2-2-2-7-(7)--2-2-2-5-(5)--3-4-|
A|-2-2-2-5-(5)--2-2-2-7-(7)--2-2-2-5-(5)--1-4-|
E|-0-0-0-3-(3)--0-0-0-5-(5)--0-0-0-3-(3)----2-|
PM . . .        . . .        . . .


e|----------------------------------------------|
B|----------------------------------------------|
G|----------------------------------------3-----|
D|-2-2-2-5-(5)--2-2-2-7-(7)--2-2-2-5-(5)--3-4-3-|
A|-2-2-2-5-(5)--2-2-2-7-(7)--2-2-2-5-(5)--1-4-3-|
E|-0-0-0-3-(3)--0-0-0-5-(5)--0-0-0-3-(3)----2-1-|
PM . . .        . . .        . . .

End Rift|
e|-----------------------------------------------------------------|
B|-----------------------------------------------------------------|
G|-----------------------------------------------------------------|
D|-2-(2)--4-4--2-(2)--4-4--5-5-------------------------------------|
A|-2-(2)--4-4--2-(2)--4-4--5-5-------------------------------------|
E|-0-(0)--2-2--0-(0)--2-2--3-3-------------------------------------|



************************************
| (n)   Ghost note
|  /    Slide up
|  PM   Palm muting 
************************************
Suggest correction What's this?
You can suggest a correction to this tab. Community and Mods will review your correction and vote to approve or reject it.
comments
print report bad tab
117 comments total. Showing first comments. show 1 bad comment
+7 reply
d_man_dude 79 wrote on July 20 2006, 02:32 pm

nice job

+10 reply
metal_shredder 164 wrote on March 7 2007, 07:34 pm

best fuking tab for this man...nice

I want to post or [tab]
guest
You may want to rate the tab now too:
select rating
Please do not post tabs as comments. Select "correction" instead!